  0
SECTION
  2
HEADER
  9
$ACADVER
  1
AC1015
  9
$ACADMAINTVER
 70
     6
  9
$DWGCODEPAGE
  3
ANSI_1254
  9
$INSBASE
 10
0.0
 20
0.0
 30
0.0
  9
$EXTMIN
 10
0.0
 20
0.0
 30
0.0
  9
$EXTMAX
 10
279.4
 20
215.9
 30
0.0
  9
$LIMMIN
 10
0.0
 20
0.0
  9
$LIMMAX
 10
279.4
 20
215.9
  9
$ORTHOMODE
 70
     0
  9
$REGENMODE
 70
     1
  9
$FILLMODE
 70
     1
  9
$QTEXTMODE
 70
     0
  9
$MIRRTEXT
 70
     1
  9
$LTSCALE
 40
1.0
  9
$ATTMODE
 70
     1
  9
$TEXTSIZE
 40
3.5
  9
$TRACEWID
 40
1.0
  9
$TEXTSTYLE
  7
Standard
  9
$CLAYER
  8
0
  9
$CELTYPE
  6
ByLayer
  9
$CECOLOR
 62
   256
  9
$CELTSCALE
 40
1.0
  9
$DISPSILH
 70
     0
  9
$DIMSCALE
 40
1.0
  9
$DIMASZ
 40
3.5
  9
$DIMEXO
 40
1.0
  9
$DIMDLI
 40
3.75
  9
$DIMRND
 40
0.0
  9
$DIMDLE
 40
0.0
  9
$DIMEXE
 40
1.0
  9
$DIMTP
 40
0.0
  9
$DIMTM
 40
0.0
  9
$DIMTXT
 40
3.5
  9
$DIMCEN
 40
2.5
  9
$DIMTSZ
 40
0.0
  9
$DIMTOL
 70
     0
  9
$DIMLIM
 70
     0
  9
$DIMTIH
 70
     1
  9
$DIMTOH
 70
     1
  9
$DIMSE1
 70
     0
  9
$DIMSE2
 70
     0
  9
$DIMTAD
 70
     1
  9
$DIMZIN
 70
     0
  9
$DIMBLK
  1

  9
$DIMASO
 70
     1
  9
$DIMSHO
 70
     1
  9
$DIMPOST
  1

  9
$DIMAPOST
  1

  9
$DIMALT
 70
     0
  9
$DIMALTD
 70
     3
  9
$DIMALTF
 40
0.0393700787
  9
$DIMLFAC
 40
1.0
  9
$DIMTOFL
 70
     1
  9
$DIMTVP
 40
0.0
  9
$DIMTIX
 70
     0
  9
$DIMSOXD
 70
     0
  9
$DIMSAH
 70
     0
  9
$DIMBLK1
  1

  9
$DIMBLK2
  1

  9
$DIMSTYLE
  2
ISO-25
  9
$DIMCLRD
 70
     0
  9
$DIMCLRE
 70
     0
  9
$DIMCLRT
 70
     0
  9
$DIMTFAC
 40
1.0
  9
$DIMGAP
 40
1.524
  9
$DIMJUST
 70
     0
  9
$DIMSD1
 70
     0
  9
$DIMSD2
 70
     0
  9
$DIMTOLJ
 70
     0
  9
$DIMTZIN
 70
     0
  9
$DIMALTZ
 70
     0
  9
$DIMALTTZ
 70
     0
  9
$DIMUPT
 70
     0
  9
$DIMDEC
 70
     2
  9
$DIMTDEC
 70
     2
  9
$DIMALTU
 70
     2
  9
$DIMALTTD
 70
     3
  9
$DIMTXSTY
  7
Standard
  9
$DIMAUNIT
 70
     0
  9
$DIMADEC
 70
     2
  9
$DIMALTRND
 40
0.0
  9
$DIMAZIN
 70
     0
  9
$DIMDSEP
 70
    44
  9
$DIMATFIT
 70
     3
  9
$DIMFRAC
 70
     0
  9
$DIMLDRBLK
  1

  9
$DIMLUNIT
 70
     2
  9
$DIMLWD
 70
    -2
  9
$DIMLWE
 70
    -2
  9
$DIMTMOVE
 70
     0
  9
$LUNITS
 70
     2
  9
$LUPREC
 70
     2
  9
$SKETCHINC
 40
1.0
  9
$FILLETRAD
 40
10.0
  9
$AUNITS
 70
     0
  9
$AUPREC
 70
     2
  9
$MENU
  1
.
  9
$ELEVATION
 40
0.0
  9
$PELEVATION
 40
0.0
  9
$THICKNESS
 40
0.0
  9
$LIMCHECK
 70
     0
  9
$CHAMFERA
 40
0.0
  9
$CHAMFERB
 40
0.0
  9
$CHAMFERC
 40
0.0
  9
$CHAMFERD
 40
0.0
  9
$SKPOLY
 70
     0
  9
$TDCREATE
 40
2459948.579436493
  9
$TDUCREATE
 40
2459948.454436493
  9
$TDUPDATE
 40
2459948.579436678
  9
$TDUUPDATE
 40
2459948.454436678
  9
$TDINDWG
 40
0.0000000116
  9
$TDUSRTIMER
 40
0.0000000116
  9
$USRTIMER
 70
     1
  9
$ANGBASE
 50
0.0
  9
$ANGDIR
 70
     0
  9
$PDMODE
 70
     0
  9
$PDSIZE
 40
-1.0
  9
$PLINEWID
 40
0.0
  9
$SPLFRAME
 70
     0
  9
$SPLINETYPE
 70
     6
  9
$SPLINESEGS
 70
     8
  9
$HANDSEED
  5
15B
  9
$SURFTAB1
 70
     6
  9
$SURFTAB2
 70
     6
  9
$SURFTYPE
 70
     6
  9
$SURFU
 70
     6
  9
$SURFV
 70
     6
  9
$UCSBASE
  2

  9
$UCSNAME
  2

  9
$UCSORG
 10
0.0
 20
0.0
 30
0.0
  9
$UCSXDIR
 10
1.0
 20
0.0
 30
0.0
  9
$UCSYDIR
 10
0.0
 20
1.0
 30
0.0
  9
$UCSORTHOREF
  2

  9
$UCSORTHOVIEW
 70
     0
  9
$UCSORGTOP
 10
0.0
 20
0.0
 30
0.0
  9
$UCSORGBOTTOM
 10
0.0
 20
0.0
 30
0.0
  9
$UCSORGLEFT
 10
0.0
 20
0.0
 30
0.0
  9
$UCSORGRIGHT
 10
0.0
 20
0.0
 30
0.0
  9
$UCSORGFRONT
 10
0.0
 20
0.0
 30
0.0
  9
$UCSORGBACK
 10
0.0
 20
0.0
 30
0.0
  9
$PUCSBASE
  2

  9
$PUCSNAME
  2

  9
$PUCSORG
 10
0.0
 20
0.0
 30
0.0
  9
$PUCSXDIR
 10
1.0
 20
0.0
 30
0.0
  9
$PUCSYDIR
 10
0.0
 20
1.0
 30
0.0
  9
$PUCSORTHOREF
  2

  9
$PUCSORTHOVIEW
 70
     0
  9
$PUCSORGTOP
 10
0.0
 20
0.0
 30
0.0
  9
$PUCSORGBOTTOM
 10
0.0
 20
0.0
 30
0.0
  9
$PUCSORGLEFT
 10
0.0
 20
0.0
 30
0.0
  9
$PUCSORGRIGHT
 10
0.0
 20
0.0
 30
0.0
  9
$PUCSORGFRONT
 10
0.0
 20
0.0
 30
0.0
  9
$PUCSORGBACK
 10
0.0
 20
0.0
 30
0.0
  9
$USERI1
 70
     0
  9
$USERI2
 70
     0
  9
$USERI3
 70
     0
  9
$USERI4
 70
     0
  9
$USERI5
 70
     0
  9
$USERR1
 40
0.0
  9
$USERR2
 40
0.0
  9
$USERR3
 40
0.0
  9
$USERR4
 40
0.0
  9
$USERR5
 40
0.0
  9
$WORLDVIEW
 70
     1
  9
$SHADEDGE
 70
     3
  9
$SHADEDIF
 70
    70
  9
$TILEMODE
 70
     1
  9
$MAXACTVP
 70
    64
  9
$PINSBASE
 10
0.0
 20
0.0
 30
0.0
  9
$PLIMCHECK
 70
     0
  9
$PEXTMIN
 10
1.0000000000E+20
 20
1.0000000000E+20
 30
1.0000000000E+20
  9
$PEXTMAX
 10
-1.0000000000E+20
 20
-1.0000000000E+20
 30
-1.0000000000E+20
  9
$PLIMMIN
 10
0.0
 20
0.0
  9
$PLIMMAX
 10
420.0
 20
297.0
  9
$UNITMODE
 70
     0
  9
$VISRETAIN
 70
     1
  9
$PLINEGEN
 70
     0
  9
$PSLTSCALE
 70
     1
  9
$TREEDEPTH
 70
  3020
  9
$CMLSTYLE
  2
Standard
  9
$CMLJUST
 70
     0
  9
$CMLSCALE
 40
20.0
  9
$PROXYGRAPHICS
 70
     1
  9
$MEASUREMENT
 70
     1
  9
$CELWEIGHT
370
    -1
  9
$ENDCAPS
280
     0
  9
$JOINSTYLE
280
     0
  9
$LWDISPLAY
290
     1
  9
$INSUNITS
 70
     4
  9
$HYPERLINKBASE
  1

  9
$STYLESHEET
  1

  9
$XEDIT
290
     1
  9
$CEPSNTYPE
380
     0
  9
$PSTYLEMODE
290
     1
  9
$FINGERPRINTGUID
  2
{4e563314-b58a-471a-8553-98c47a80da0a}
  9
$VERSIONGUID
  2
{FAEB1C32-E019-11D5-929B-00C0DF256EC4}
  9
$EXTNAMES
290
     1
  9
$PSVPSCALE
 40
0.0
  9
$OLESTARTUP
290
     0
  0
ENDSEC
  0
SECTION
  2
CLASSES
  0
CLASS
  1
ACDBDICTIONARYWDFLT
  2
AcDbDictionaryWithDefault
  3
ObjectDBX Classes
 90
        0
280
     0
281
     0
  0
CLASS
  1
VISUALSTYLE
  2
AcDbVisualStyle
  3
ObjectDBX Classes
 90
     4095
280
     0
281
     0
  0
CLASS
  1
MATERIAL
  2
AcDbMaterial
  3
ObjectDBX Classes
 90
     1153
280
     0
281
     0
  0
CLASS
  1
SCALE
  2
AcDbScale
  3
ObjectDBX Classes
 90
     1153
280
     0
281
     0
  0
CLASS
  1
TABLESTYLE
  2
AcDbTableStyle
  3
ObjectDBX Classes
 90
     4095
280
     0
281
     0
  0
CLASS
  1
MLEADERSTYLE
  2
AcDbMLeaderStyle
  3
ACDB_MLEADERSTYLE_CLASS
 90
     4095
280
     0
281
     0
  0
CLASS
  1
SUN
  2
AcDbSun
  3
SCENEOE
 90
     1153
280
     0
281
     0
  0
CLASS
  1
ACDBPLACEHOLDER
  2
AcDbPlaceHolder
  3
ObjectDBX Classes
 90
        0
280
     0
281
     0
  0
CLASS
  1
LAYOUT
  2
AcDbLayout
  3
ObjectDBX Classes
 90
        0
280
     0
281
     0
  0
ENDSEC
  0
SECTION
  2
TABLES
  0
TABLE
  2
VPORT
  5
8
330
0
100
AcDbSymbolTable
 70
     1
  0
VPORT
  5
29
330
8
100
AcDbSymbolTableRecord
100
AcDbViewportTableRecord
  2
*Active
 70
     0
 10
0.0
 20
0.0
 11
1.0
 21
1.0
 12
139.7
 22
107.95
 13
0.0
 23
0.0
 14
10.0
 24
10.0
 15
10.0
 25
10.0
 16
0.0
 26
0.0
 36
1.0
 17
0.0
 27
0.0
 37
0.0
 40
215.9
 41
1.2941176471
 42
50.0
 43
0.0
 44
0.0
 50
0.0
 51
0.0
 71
     0
 72
  2000
 73
     1
 74
     3
 75
     0
 76
     0
 77
     0
 78
     0
281
     0
 65
     1
110
0.0
120
0.0
130
0.0
111
1.0
121
0.0
131
0.0
112
0.0
122
1.0
132
0.0
 79
     0
146
0.0
  0
ENDTAB
  0
TABLE
  2
LTYPE
  5
5
330
0
100
AcDbSymbolTable
 70
     6
  0
LTYPE
  5
14
330
5
100
AcDbSymbolTableRecord
100
AcDbLinetypeTableRecord
  2
ByBlock
 70
     0
  3

 72
    65
 73
     0
 40
0.0
  0
LTYPE
  5
15
330
5
100
AcDbSymbolTableRecord
100
AcDbLinetypeTableRecord
  2
ByLayer
 70
     0
  3

 72
    65
 73
     0
 40
0.0
  0
LTYPE
  5
16
330
5
100
AcDbSymbolTableRecord
100
AcDbLinetypeTableRecord
  2
Continuous
 70
     0
  3
Solid line
 72
    65
 73
     0
 40
0.0
  0
LTYPE
  5
6E
330
5
100
AcDbSymbolTableRecord
100
AcDbLinetypeTableRecord
  2
HIDDEN
 70
     0
  3
Hidden __ __ __ __ __ __ __ __ __ __ __ __ __ __
 72
    65
 73
     2
 40
1.905
 49
1.27
 74
     0
 49
-0.635
 74
     0
  0
LTYPE
  5
6F
330
5
100
AcDbSymbolTableRecord
100
AcDbLinetypeTableRecord
  2
PHANTOM
 70
     0
  3
Phantom ______  __  __  ______  __  __  ______
 72
    65
 73
     6
 40
12.7
 49
6.35
 74
     0
 49
-1.27
 74
     0
 49
1.27
 74
     0
 49
-1.27
 74
     0
 49
1.27
 74
     0
 49
-1.27
 74
     0
  0
LTYPE
  5
70
330
5
100
AcDbSymbolTableRecord
100
AcDbLinetypeTableRecord
  2
CENTER
 70
     0
  3
Center ____ _ ____ _ ____ _ ____ _ ____ _ ____
 72
    65
 73
     4
 40
10.16
 49
6.35
 74
     0
 49
-1.27
 74
     0
 49
1.27
 74
     0
 49
-1.27
 74
     0
  0
LTYPE
  5
71
330
5
100
AcDbSymbolTableRecord
100
AcDbLinetypeTableRecord
  2
CENTERX2
 70
     0
  3
Center (2x) ________  __  ________  __  _____
 72
    65
 73
     4
 40
20.32
 49
12.7
 74
     0
 49
-2.54
 74
     0
 49
2.54
 74
     0
 49
-2.54
 74
     0
  0
LTYPE
  5
72
330
5
100
AcDbSymbolTableRecord
100
AcDbLinetypeTableRecord
  2
DOT2
 70
     0
  3
Dot (.5x) ........................................
 72
    65
 73
     2
 40
0.635
 49
0.0
 74
     0
 49
-0.635
 74
     0
  0
ENDTAB
  0
TABLE
  2
LAYER
  5
2
330
0
100
AcDbSymbolTable
 70
    17
  0
LAYER
  5
10
330
2
100
AcDbSymbolTableRecord
100
AcDbLayerTableRecord
  2
0
 70
     0
 62
     7
  6
Continuous
370
    -3
390
F
  0
LAYER
  5
73
330
2
100
AcDbSymbolTableRecord
100
AcDbLayerTableRecord
  2
FORMAT
 70
     0
 62
     7
  6
Continuous
370
    -3
390
F
  0
LAYER
  5
74
330
2
100
AcDbSymbolTableRecord
100
AcDbLayerTableRecord
  2
YARDIMCI_GEOMETRI
 70
     0
 62
    -6
  6
Continuous
290
     0
370
    -3
390
F
  0
LAYER
  5
75
330
2
100
AcDbSymbolTableRecord
100
AcDbLayerTableRecord
  2
SAYFA_CERCEVESI
 70
     0
 62
     7
  6
Continuous
370
    25
390
F
  0
LAYER
  5
76
330
2
100
AcDbSymbolTableRecord
100
AcDbLayerTableRecord
  2
ANTET
 70
     0
 62
     7
  6
Continuous
370
    -3
390
F
  0
LAYER
  5
77
330
2
100
AcDbSymbolTableRecord
100
AcDbLayerTableRecord
  2
OLCU
 70
     0
 62
   150
  6
Continuous
370
    -3
390
F
  0
LAYER
  5
78
330
2
100
AcDbSymbolTableRecord
100
AcDbLayerTableRecord
  2
METIN
 70
     0
 62
    96
  6
Continuous
370
    -3
390
F
  0
LAYER
  5
79
330
2
100
AcDbSymbolTableRecord
100
AcDbLayerTableRecord
  2
BALON
 70
     0
 62
     5
  6
Continuous
370
    -3
390
F
  0
LAYER
  5
7A
330
2
100
AcDbSymbolTableRecord
100
AcDbLayerTableRecord
  2
VURGU
 70
     0
 62
     7
  6
Continuous
370
    -3
390
F
  0
LAYER
  5
7B
330
2
100
AcDbSymbolTableRecord
100
AcDbLayerTableRecord
  2
SILIK
 70
     0
 62
     7
  6
Continuous
370
    -3
390
F
  0
LAYER
  5
7C
330
2
100
AcDbSymbolTableRecord
100
AcDbLayerTableRecord
  2
MODEL
 70
     0
 62
     7
  6
Continuous
370
    -3
390
F
  0
LAYER
  5
7D
330
2
100
AcDbSymbolTableRecord
100
AcDbLayerTableRecord
  2
DETAYLANDıRMA
 70
     0
 62
   190
  6
Continuous
370
    -3
390
F
  0
LAYER
  5
7E
330
2
100
AcDbSymbolTableRecord
100
AcDbLayerTableRecord
  2
TOLERANS
 70
     0
 62
   230
  6
Continuous
370
    -3
390
F
  0
LAYER
  5
7F
330
2
100
AcDbSymbolTableRecord
100
AcDbLayerTableRecord
  2
MERKEZ_CIZGILERI
 70
     0
 62
    30
  6
Continuous
370
    -3
390
F
  0
LAYER
  5
80
330
2
100
AcDbSymbolTableRecord
100
AcDbLayerTableRecord
  2
KESIT-DETAY_CIZGILERI
 70
     0
 62
     7
  6
Continuous
370
    -3
390
F
  0
LAYER
  5
81
330
2
100
AcDbSymbolTableRecord
100
AcDbLayerTableRecord
  2
\U+041E\U+0421\U+0415\U+0412\U+042B\U+0415
 70
     0
 62
     7
  6
Continuous
370
    -3
390
F
  0
LAYER
  5
82
330
2
100
AcDbSymbolTableRecord
100
AcDbLayerTableRecord
  2
\U+0412\U+041E\U+0414\U+042F\U+041D\U+042B\U+0415_\U+0417\U+041D\U+0410\U+041A\U+0418
 70
     0
 62
    11
  6
Continuous
370
    -3
390
F
  0
ENDTAB
  0
TABLE
  2
STYLE
  5
3
330
0
100
AcDbSymbolTable
 70
     1
  0
STYLE
  5
11
330
3
100
AcDbSymbolTableRecord
100
AcDbTextStyleTableRecord
  2
Standard
 70
     0
 40
0.0
 41
1.0
 50
0.0
 71
     0
 42
3.5
  3
txt
  4

  0
ENDTAB
  0
TABLE
  2
VIEW
  5
6
330
0
100
AcDbSymbolTable
 70
     0
  0
ENDTAB
  0
TABLE
  2
UCS
  5
7
330
0
100
AcDbSymbolTable
 70
     0
  0
ENDTAB
  0
TABLE
  2
APPID
  5
9
330
0
100
AcDbSymbolTable
 70
     1
  0
APPID
  5
12
330
9
100
AcDbSymbolTableRecord
100
AcDbRegAppTableRecord
  2
ACAD
 70
     0
  0
ENDTAB
  0
TABLE
  2
DIMSTYLE
  5
A
330
0
100
AcDbSymbolTable
 70
     1
100
AcDbDimStyleTable
  0
DIMSTYLE
105
27
330
A
100
AcDbSymbolTableRecord
100
AcDbDimStyleTableRecord
  2
ISO-25
 70
     0
 41
2.5
 42
0.625
 43
3.75
 44
1.25
 73
     0
 74
     0
 77
     1
 78
     8
140
2.5
141
2.5
143
0.0393700787
147
0.625
171
     3
172
     1
178
     0
271
     2
272
     2
274
     3
278
    44
283
     0
284
     8
340
11
  0
ENDTAB
  0
TABLE
  2
BLOCK_RECORD
  5
1
330
0
100
AcDbSymbolTable
 70
     2
  0
BLOCK_RECORD
  5
1F
330
1
100
AcDbSymbolTableRecord
100
AcDbBlockTableRecord
  2
*Model_Space
340
22
  0
BLOCK_RECORD
  5
1B
330
1
100
AcDbSymbolTableRecord
100
AcDbBlockTableRecord
  2
*Paper_Space
340
1E
  0
BLOCK_RECORD
  5
23
330
1
100
AcDbSymbolTableRecord
100
AcDbBlockTableRecord
  2
*Paper_Space0
340
26
  0
BLOCK_RECORD
  5
87
330
1
100
AcDbSymbolTableRecord
100
AcDbBlockTableRecord
  2
SW_CENTERMARKSYMBOL_0
340
0
102
{BLKREFS
331
92
102
}
  0
ENDTAB
  0
ENDSEC
  0
SECTION
  2
BLOCKS
  0
BLOCK
  5
20
330
1F
100
AcDbEntity
  8
0
100
AcDbBlockBegin
  2
*Model_Space
 70
     0
 10
0.0
 20
0.0
 30
0.0
  3
*Model_Space
  1

  0
ENDBLK
  5
21
330
1F
100
AcDbEntity
  8
0
100
AcDbBlockEnd
  0
BLOCK
  5
1C
330
1B
100
AcDbEntity
 67
     1
  8
0
100
AcDbBlockBegin
  2
*Paper_Space
 70
     0
 10
0.0
 20
0.0
 30
0.0
  3
*Paper_Space
  1

  0
ENDBLK
  5
1D
330
1B
100
AcDbEntity
 67
     1
  8
0
100
AcDbBlockEnd
  0
BLOCK
  5
24
330
23
100
AcDbEntity
  8
0
100
AcDbBlockBegin
  2
*Paper_Space0
 70
     0
 10
0.0
 20
0.0
 30
0.0
  3
*Paper_Space0
  1

  0
ENDBLK
  5
25
330
23
100
AcDbEntity
  8
0
100
AcDbBlockEnd
  0
BLOCK
  5
88
330
87
100
AcDbEntity
  8
0
100
AcDbBlockBegin
  2
SW_CENTERMARKSYMBOL_0
 70
     0
 10
0.0
 20
0.0
 30
0.0
  3
SW_CENTERMARKSYMBOL_0
  1

  0
LINE
  5
8A
330
87
100
AcDbEntity
  8
FORMAT
 62
     0
100
AcDbLine
 10
0.0
 20
0.0
 30
0.0
 11
0.0
 21
2.5
 31
0.0
  0
LINE
  5
8B
330
87
100
AcDbEntity
  8
FORMAT
 62
     0
100
AcDbLine
 10
0.0
 20
0.0
 30
0.0
 11
-2.5
 21
0.0
 31
0.0
  0
LINE
  5
8C
330
87
100
AcDbEntity
  8
FORMAT
 62
     0
100
AcDbLine
 10
0.0
 20
0.0
 30
0.0
 11
0.0
 21
-2.5
 31
0.0
  0
LINE
  5
8D
330
87
100
AcDbEntity
  8
FORMAT
 62
     0
100
AcDbLine
 10
0.0
 20
0.0
 30
0.0
 11
2.5
 21
0.0
 31
0.0
  0
LINE
  5
8E
330
87
100
AcDbEntity
  8
FORMAT
 62
     0
100
AcDbLine
 10
0.0
 20
5.0
 30
0.0
 11
0.0
 21
57.5
 31
0.0
  0
LINE
  5
8F
330
87
100
AcDbEntity
  8
FORMAT
 62
     0
100
AcDbLine
 10
-5.0
 20
0.0
 30
0.0
 11
-57.5
 21
0.0
 31
0.0
  0
LINE
  5
90
330
87
100
AcDbEntity
  8
FORMAT
 62
     0
100
AcDbLine
 10
0.0
 20
-5.0
 30
0.0
 11
0.0
 21
-57.5
 31
0.0
  0
LINE
  5
91
330
87
100
AcDbEntity
  8
FORMAT
 62
     0
100
AcDbLine
 10
5.0
 20
0.0
 30
0.0
 11
57.5
 21
0.0
 31
0.0
  0
ENDBLK
  5
89
330
87
100
AcDbEntity
  8
0
100
AcDbBlockEnd
  0
ENDSEC
  0
SECTION
  2
ENTITIES
  0
CIRCLE
  5
83
330
1F
100
AcDbEntity
  8
0
  6
Continuous
 62
     7
370
    25
100
AcDbCircle
 10
139.8323425481
 20
108.7440552885
 30
0.0
 40
55.00000000000003
  0
CIRCLE
  5
84
330
1F
100
AcDbEntity
  8
0
  6
Continuous
 62
     7
370
    25
100
AcDbCircle
 10
139.8323425481
 20
108.7440552885
 30
0.0
 40
45.00000000000001
  0
CIRCLE
  5
85
330
1F
100
AcDbEntity
  8
0
  6
Continuous
 62
     7
370
    25
100
AcDbCircle
 10
139.8323425481
 20
108.7440552885
 30
0.0
 40
77.5
  0
CIRCLE
  5
86
330
1F
100
AcDbEntity
  8
0
  6
Continuous
 62
     7
370
    25
100
AcDbCircle
 10
139.8323425481
 20
108.7440552885
 30
0.0
 40
78.00000000000003
  0
INSERT
  5
92
330
1F
100
AcDbEntity
  8
FORMAT
 62
     7
100
AcDbBlockReference
  2
SW_CENTERMARKSYMBOL_0
 10
139.8323425481
 20
108.7440552885
 30
0.0
  0
LINE
  5
93
330
1F
100
AcDbEntity
  8
0
  6
Continuous
 62
     7
370
    25
100
AcDbLine
 10
217.8323425481
 20
334.9662985915
 30
0.0
 11
217.8323425481
 21
379.4662985915
 31
0.0
  0
LINE
  5
94
330
1F
100
AcDbEntity
  8
0
  6
Continuous
 62
     7
370
    25
100
AcDbLine
 10
61.8323425481
 20
379.4662985915
 30
0.0
 11
61.8323425481
 21
334.9662985915
 31
0.0
  0
ARC
  5
95
330
1F
100
AcDbEntity
  8
0
  6
Continuous
 62
     7
370
    25
100
AcDbCircle
 10
217.3323425481
 20
379.4662985915
 30
0.0
 40
0.5000000000000284
100
AcDbArc
 50
0.0
 51
90.0
  0
ARC
  5
96
330
1F
100
AcDbEntity
  8
0
  6
Continuous
 62
     7
370
    25
100
AcDbCircle
 10
62.3323425481
 20
379.4662985915
 30
0.0
 40
0.5
100
AcDbArc
 50
90.0
 51
180.0
  0
LINE
  5
97
330
1F
100
AcDbEntity
  8
0
  6
Continuous
 62
     7
370
    25
100
AcDbLine
 10
83.3173425481
 20
283.9662985915
 30
0.0
 11
85.0493933556
 21
282.9662985915
 31
0.0
  0
LINE
  5
98
330
1F
100
AcDbEntity
  8
0
  6
Continuous
 62
     7
370
    25
100
AcDbLine
 10
194.6152917405
 20
282.9662985915
 30
0.0
 11
196.3473425481
 21
283.9662985915
 31
0.0
  0
LINE
  5
99
330
1F
100
AcDbEntity
  8
0
  6
Continuous
 62
     7
370
    25
100
AcDbLine
 10
83.3173425481
 20
285.9662985915
 30
0.0
 11
85.0493933556
 21
284.9662985915
 31
0.0
  0
LINE
  5
9A
330
1F
100
AcDbEntity
  8
0
  6
Continuous
 62
     7
370
    25
100
AcDbLine
 10
194.6152917405
 20
284.9662985915
 30
0.0
 11
196.3473425481
 21
285.9662985915
 31
0.0
  0
LINE
  5
9B
330
1F
100
AcDbEntity
  8
0
  6
Continuous
 62
     7
370
    25
100
AcDbLine
 10
196.3473425481
 20
283.9662985915
 30
0.0
 11
194.6152917405
 21
284.9662985915
 31
0.0
  0
LINE
  5
9C
330
1F
100
AcDbEntity
  8
0
  6
Continuous
 62
     7
370
    25
100
AcDbLine
 10
85.0493933556
 20
284.9662985915
 30
0.0
 11
83.3173425481
 21
283.9662985915
 31
0.0
  0
LINE
  5
9D
330
1F
100
AcDbEntity
  8
0
  6
Continuous
 62
     7
370
    25
100
AcDbLine
 10
196.3473425481
 20
285.9662985915
 30
0.0
 11
194.6152917405
 21
286.9662985915
 31
0.0
  0
LINE
  5
9E
330
1F
100
AcDbEntity
  8
0
  6
Continuous
 62
     7
370
    25
100
AcDbLine
 10
85.0493933556
 20
286.9662985915
 30
0.0
 11
83.3173425481
 21
285.9662985915
 31
0.0
  0
LINE
  5
9F
330
1F
100
AcDbEntity
  8
0
  6
Continuous
 62
     7
370
    25
100
AcDbLine
 10
83.3173425481
 20
287.9662985915
 30
0.0
 11
85.0493933556
 21
286.9662985915
 31
0.0
  0
LINE
  5
A0
330
1F
100
AcDbEntity
  8
0
  6
Continuous
 62
     7
370
    25
100
AcDbLine
 10
194.6152917405
 20
286.9662985915
 30
0.0
 11
196.3473425481
 21
287.9662985915
 31
0.0
  0
LINE
  5
A1
330
1F
100
AcDbEntity
  8
0
  6
Continuous
 62
     7
370
    25
100
AcDbLine
 10
196.3473425481
 20
287.9662985915
 30
0.0
 11
194.6152917405
 21
288.9662985915
 31
0.0
  0
LINE
  5
A2
330
1F
100
AcDbEntity
  8
0
  6
Continuous
 62
     7
370
    25
100
AcDbLine
 10
85.0493933556
 20
288.9662985915
 30
0.0
 11
83.3173425481
 21
287.9662985915
 31
0.0
  0
LINE
  5
A3
330
1F
100
AcDbEntity
  8
0
  6
Continuous
 62
     7
370
    25
100
AcDbLine
 10
83.3173425481
 20
289.9662985915
 30
0.0
 11
85.0493933556
 21
288.9662985915
 31
0.0
  0
LINE
  5
A4
330
1F
100
AcDbEntity
  8
0
  6
Continuous
 62
     7
370
    25
100
AcDbLine
 10
194.6152917405
 20
288.9662985915
 30
0.0
 11
196.3473425481
 21
289.9662985915
 31
0.0
  0
LINE
  5
A5
330
1F
100
AcDbEntity
  8
0
  6
Continuous
 62
     7
370
    25
100
AcDbLine
 10
196.3473425481
 20
289.9662985915
 30
0.0
 11
196.3473425481
 21
314.9662985915
 31
0.0
  0
LINE
  5
A6
330
1F
100
AcDbEntity
  8
0
  6
Continuous
 62
     7
370
    25
100
AcDbLine
 10
83.3173425481
 20
314.9662985915
 30
0.0
 11
83.3173425481
 21
289.9662985915
 31
0.0
  0
LINE
  5
A7
330
1F
100
AcDbEntity
  8
0
  6
Continuous
 62
     7
370
    25
100
AcDbLine
 10
194.8323425481
 20
379.9662985915
 30
0.0
 11
194.8323425481
 21
461.9662985915
 31
0.0
  0
LINE
  5
A8
330
1F
100
AcDbEntity
  8
0
  6
Continuous
 62
     7
370
    25
100
AcDbLine
 10
84.8323425481
 20
461.9662985915
 30
0.0
 11
84.8323425481
 21
379.9662985915
 31
0.0
  0
LINE
  5
A9
330
1F
100
AcDbEntity
  8
0
  6
Continuous
 62
     7
370
    25
100
AcDbLine
 10
217.8323425481
 20
334.9662985915
 30
0.0
 11
61.8323425481
 21
334.9662985915
 31
0.0
  0
LINE
  5
AA
330
1F
100
AcDbEntity
  8
0
  6
Continuous
 62
     7
370
    25
100
AcDbLine
 10
217.3323425475
 20
379.9662985915
 30
0.0
 11
62.3323425481
 21
379.9662985915
 31
0.0
  0
LINE
  5
AB
330
1F
100
AcDbEntity
  8
0
  6
Continuous
 62
     7
370
    25
100
AcDbLine
 10
82.3323425481
 20
334.9662985915
 30
0.0
 11
82.3323425481
 21
314.9662985915
 31
0.0
  0
LINE
  5
AC
330
1F
100
AcDbEntity
  8
0
  6
Continuous
 62
     7
370
    25
100
AcDbLine
 10
139.8323425481
 20
334.9662985915
 30
0.0
 11
139.8323425481
 21
314.9662985915
 31
0.0
  0
LINE
  5
AD
330
1F
100
AcDbEntity
  8
0
  6
Continuous
 62
     7
370
    25
100
AcDbLine
 10
82.3323425481
 20
314.9662985915
 30
0.0
 11
139.8323425481
 21
314.9662985915
 31
0.0
  0
LINE
  5
AE
330
1F
100
AcDbEntity
  8
0
  6
Continuous
 62
     7
370
    25
100
AcDbLine
 10
197.3323425481
 20
334.9662985915
 30
0.0
 11
197.3323425481
 21
314.9662985915
 31
0.0
  0
LINE
  5
AF
330
1F
100
AcDbEntity
  8
0
  6
Continuous
 62
     7
370
    25
100
AcDbLine
 10
139.8323425481
 20
314.9662985915
 30
0.0
 11
197.3323425481
 21
314.9662985915
 31
0.0
  0
LINE
  5
B0
330
1F
100
AcDbEntity
  8
0
  6
Continuous
 62
     7
370
    25
100
AcDbLine
 10
196.3473425481
 20
283.9662985915
 30
0.0
 11
83.3173425481
 21
283.9662985915
 31
0.0
  0
LINE
  5
B1
330
1F
100
AcDbEntity
  8
0
  6
Continuous
 62
     7
370
    25
100
AcDbLine
 10
194.6152917405
 20
282.9662985915
 30
0.0
 11
85.0493933556
 21
282.9662985915
 31
0.0
  0
LINE
  5
B2
330
1F
100
AcDbEntity
  8
0
  6
Continuous
 62
     7
370
    25
100
AcDbLine
 10
196.3473425481
 20
285.9662985915
 30
0.0
 11
83.3173425481
 21
285.9662985915
 31
0.0
  0
LINE
  5
B3
330
1F
100
AcDbEntity
  8
0
  6
Continuous
 62
     7
370
    25
100
AcDbLine
 10
194.6152917405
 20
284.9662985915
 30
0.0
 11
85.0493933556
 21
284.9662985915
 31
0.0
  0
LINE
  5
B4
330
1F
100
AcDbEntity
  8
0
  6
Continuous
 62
     7
370
    25
100
AcDbLine
 10
194.6152917405
 20
286.9662985915
 30
0.0
 11
85.0493933556
 21
286.9662985915
 31
0.0
  0
LINE
  5
B5
330
1F
100
AcDbEntity
  8
0
  6
Continuous
 62
     7
370
    25
100
AcDbLine
 10
196.3473425481
 20
287.9662985915
 30
0.0
 11
83.3173425481
 21
287.9662985915
 31
0.0
  0
LINE
  5
B6
330
1F
100
AcDbEntity
  8
0
  6
Continuous
 62
     7
370
    25
100
AcDbLine
 10
194.6152917405
 20
288.9662985915
 30
0.0
 11
85.0493933556
 21
288.9662985915
 31
0.0
  0
LINE
  5
B7
330
1F
100
AcDbEntity
  8
0
  6
Continuous
 62
     7
370
    25
100
AcDbLine
 10
196.3473425481
 20
289.9662985915
 30
0.0
 11
83.3173425481
 21
289.9662985915
 31
0.0
  0
LINE
  5
B8
330
1F
100
AcDbEntity
  8
0
  6
Continuous
 62
     7
370
    25
100
AcDbLine
 10
194.8323425481
 20
461.9662985915
 30
0.0
 11
84.8323425481
 21
461.9662985915
 31
0.0
  0
LINE
  5
B9
330
1F
100
AcDbEntity
  8
0
  6
Continuous
 62
     1
370
    25
100
AcDbLine
 10
217.8323425481
 20
379.4662985915
 30
0.0
 11
61.8323425481
 21
379.4662985915
 31
0.0
  0
LINE
  5
BA
330
1F
100
AcDbEntity
  8
0
  6
Continuous
 62
     7
370
    25
100
AcDbLine
 10
432.7889367069
 20
30.7440552885
 30
0.0
 11
477.2889367069
 21
30.7440552885
 31
0.0
  0
LINE
  5
BB
330
1F
100
AcDbEntity
  8
0
  6
Continuous
 62
     7
370
    25
100
AcDbLine
 10
477.2889367069
 20
186.7440552885
 30
0.0
 11
432.7889367069
 21
186.7440552885
 31
0.0
  0
ARC
  5
BC
330
1F
100
AcDbEntity
  8
0
  6
Continuous
 62
     7
370
    25
100
AcDbCircle
 10
477.2889367069
 20
31.2440552885
 30
0.0
 40
0.5000000000000142
100
AcDbArc
 50
270.0
 51
0.0
  0
ARC
  5
BD
330
1F
100
AcDbEntity
  8
0
  6
Continuous
 62
     7
370
    25
100
AcDbCircle
 10
477.2889367069
 20
186.2440552885
 30
0.0
 40
0.5
100
AcDbArc
 50
0.0
 51
90.0
  0
LINE
  5
BE
330
1F
100
AcDbEntity
  8
0
  6
Continuous
 62
     7
370
    25
100
AcDbLine
 10
381.7889367069
 20
165.2590552885
 30
0.0
 11
380.7889367069
 21
163.5270044809
 31
0.0
  0
LINE
  5
BF
330
1F
100
AcDbEntity
  8
0
  6
Continuous
 62
     7
370
    25
100
AcDbLine
 10
380.7889367069
 20
53.961106096
 30
0.0
 11
381.7889367069
 21
52.2290552885
 31
0.0
  0
LINE
  5
C0
330
1F
100
AcDbEntity
  8
0
  6
Continuous
 62
     7
370
    25
100
AcDbLine
 10
383.7889367069
 20
165.2590552885
 30
0.0
 11
382.7889367069
 21
163.5270044809
 31
0.0
  0
LINE
  5
C1
330
1F
100
AcDbEntity
  8
0
  6
Continuous
 62
     7
370
    25
100
AcDbLine
 10
382.7889367069
 20
53.961106096
 30
0.0
 11
383.7889367069
 21
52.2290552885
 31
0.0
  0
LINE
  5
C2
330
1F
100
AcDbEntity
  8
0
  6
Continuous
 62
     7
370
    25
100
AcDbLine
 10
381.7889367069
 20
52.2290552885
 30
0.0
 11
382.7889367069
 21
53.961106096
 31
0.0
  0
LINE
  5
C3
330
1F
100
AcDbEntity
  8
0
  6
Continuous
 62
     7
370
    25
100
AcDbLine
 10
382.7889367069
 20
163.5270044809
 30
0.0
 11
381.7889367069
 21
165.2590552885
 31
0.0
  0
LINE
  5
C4
330
1F
100
AcDbEntity
  8
0
  6
Continuous
 62
     7
370
    25
100
AcDbLine
 10
383.7889367069
 20
52.2290552885
 30
0.0
 11
384.7889367069
 21
53.961106096
 31
0.0
  0
LINE
  5
C5
330
1F
100
AcDbEntity
  8
0
  6
Continuous
 62
     7
370
    25
100
AcDbLine
 10
384.7889367069
 20
163.5270044809
 30
0.0
 11
383.7889367069
 21
165.2590552885
 31
0.0
  0
LINE
  5
C6
330
1F
100
AcDbEntity
  8
0
  6
Continuous
 62
     7
370
    25
100
AcDbLine
 10
385.7889367069
 20
165.2590552885
 30
0.0
 11
384.7889367069
 21
163.5270044809
 31
0.0
  0
LINE
  5
C7
330
1F
100
AcDbEntity
  8
0
  6
Continuous
 62
     7
370
    25
100
AcDbLine
 10
384.7889367069
 20
53.961106096
 30
0.0
 11
385.7889367069
 21
52.2290552885
 31
0.0
  0
LINE
  5
C8
330
1F
100
AcDbEntity
  8
0
  6
Continuous
 62
     7
370
    25
100
AcDbLine
 10
385.7889367069
 20
52.2290552885
 30
0.0
 11
386.7889367069
 21
53.961106096
 31
0.0
  0
LINE
  5
C9
330
1F
100
AcDbEntity
  8
0
  6
Continuous
 62
     7
370
    25
100
AcDbLine
 10
386.7889367069
 20
163.5270044809
 30
0.0
 11
385.7889367069
 21
165.2590552885
 31
0.0
  0
LINE
  5
CA
330
1F
100
AcDbEntity
  8
0
  6
Continuous
 62
     7
370
    25
100
AcDbLine
 10
387.7889367069
 20
165.2590552885
 30
0.0
 11
386.7889367069
 21
163.5270044809
 31
0.0
  0
LINE
  5
CB
330
1F
100
AcDbEntity
  8
0
  6
Continuous
 62
     7
370
    25
100
AcDbLine
 10
386.7889367069
 20
53.961106096
 30
0.0
 11
387.7889367069
 21
52.2290552885
 31
0.0
  0
LINE
  5
CC
330
1F
100
AcDbEntity
  8
0
  6
Continuous
 62
     7
370
    25
100
AcDbLine
 10
387.7889367069
 20
52.2290552885
 30
0.0
 11
412.7889367069
 21
52.2290552885
 31
0.0
  0
LINE
  5
CD
330
1F
100
AcDbEntity
  8
0
  6
Continuous
 62
     7
370
    25
100
AcDbLine
 10
412.7889367069
 20
165.2590552885
 30
0.0
 11
387.7889367069
 21
165.2590552885
 31
0.0
  0
LINE
  5
CE
330
1F
100
AcDbEntity
  8
0
  6
Continuous
 62
     7
370
    25
100
AcDbLine
 10
477.7889367069
 20
53.7440552885
 30
0.0
 11
559.7889367069
 21
53.7440552885
 31
0.0
  0
LINE
  5
CF
330
1F
100
AcDbEntity
  8
0
  6
Continuous
 62
     7
370
    25
100
AcDbLine
 10
559.7889367069
 20
163.7440552885
 30
0.0
 11
477.7889367069
 21
163.7440552885
 31
0.0
  0
LINE
  5
D0
330
1F
100
AcDbEntity
  8
0
  6
Continuous
 62
     7
370
    25
100
AcDbLine
 10
432.7889367069
 20
108.7440552885
 30
0.0
 11
432.7889367069
 21
186.7440552885
 31
0.0
  0
LINE
  5
D1
330
1F
100
AcDbEntity
  8
0
  6
Continuous
 62
     7
370
    25
100
AcDbLine
 10
432.7889367069
 20
30.7440552885
 30
0.0
 11
432.7889367069
 21
108.7440552885
 31
0.0
  0
LINE
  5
D2
330
1F
100
AcDbEntity
  8
0
  6
Continuous
 62
     7
370
    25
100
AcDbLine
 10
477.7889367069
 20
108.7440552885
 30
0.0
 11
477.7889367069
 21
186.2440552885
 31
0.0
  0
LINE
  5
D3
330
1F
100
AcDbEntity
  8
0
  6
Continuous
 62
     7
370
    25
100
AcDbLine
 10
477.7889367069
 20
31.2440552885
 30
0.0
 11
477.7889367069
 21
108.7440552885
 31
0.0
  0
LINE
  5
D4
330
1F
100
AcDbEntity
  8
0
  6
Continuous
 62
     7
370
    25
100
AcDbLine
 10
432.7889367069
 20
75.5464148101
 30
0.0
 11
412.7889367069
 21
75.5464148101
 31
0.0
  0
LINE
  5
D5
330
1F
100
AcDbEntity
  8
0
  6
Continuous
 62
     7
370
    25
100
AcDbLine
 10
432.7889367069
 20
42.3487743317
 30
0.0
 11
412.7889367069
 21
42.3487743317
 31
0.0
  0
LINE
  5
D6
330
1F
100
AcDbEntity
  8
0
  6
Continuous
 62
     7
370
    25
100
AcDbLine
 10
412.7889367069
 20
75.5464148101
 30
0.0
 11
412.7889367069
 21
42.3487743317
 31
0.0
  0
LINE
  5
D7
330
1F
100
AcDbEntity
  8
0
  6
Continuous
 62
     7
370
    25
100
AcDbLine
 10
432.7889367069
 20
141.9416957669
 30
0.0
 11
412.7889367069
 21
141.9416957669
 31
0.0
  0
LINE
  5
D8
330
1F
100
AcDbEntity
  8
0
  6
Continuous
 62
     7
370
    25
100
AcDbLine
 10
412.7889367069
 20
141.9416957669
 30
0.0
 11
412.7889367069
 21
75.5464148101
 31
0.0
  0
LINE
  5
D9
330
1F
100
AcDbEntity
  8
0
  6
Continuous
 62
     7
370
    25
100
AcDbLine
 10
432.7889367069
 20
175.1393362453
 30
0.0
 11
412.7889367069
 21
175.1393362453
 31
0.0
  0
LINE
  5
DA
330
1F
100
AcDbEntity
  8
0
  6
Continuous
 62
     7
370
    25
100
AcDbLine
 10
412.7889367069
 20
175.1393362453
 30
0.0
 11
412.7889367069
 21
141.9416957669
 31
0.0
  0
LINE
  5
DB
330
1F
100
AcDbEntity
  8
0
  6
Continuous
 62
     7
370
    25
100
AcDbLine
 10
381.7889367069
 20
108.7440552885
 30
0.0
 11
381.7889367069
 21
165.2590552885
 31
0.0
  0
LINE
  5
DC
330
1F
100
AcDbEntity
  8
0
  6
Continuous
 62
     7
370
    25
100
AcDbLine
 10
381.7889367069
 20
52.2290552885
 30
0.0
 11
381.7889367069
 21
108.7440552885
 31
0.0
  0
LINE
  5
DD
330
1F
100
AcDbEntity
  8
0
  6
Continuous
 62
     7
370
    25
100
AcDbLine
 10
380.7889367069
 20
108.7440552885
 30
0.0
 11
380.7889367069
 21
163.5270044809
 31
0.0
  0
LINE
  5
DE
330
1F
100
AcDbEntity
  8
0
  6
Continuous
 62
     7
370
    25
100
AcDbLine
 10
380.7889367069
 20
53.961106096
 30
0.0
 11
380.7889367069
 21
108.7440552885
 31
0.0
  0
LINE
  5
DF
330
1F
100
AcDbEntity
  8
0
  6
Continuous
 62
     7
370
    25
100
AcDbLine
 10
383.7889367069
 20
108.7440552885
 30
0.0
 11
383.7889367069
 21
165.2590552885
 31
0.0
  0
LINE
  5
E0
330
1F
100
AcDbEntity
  8
0
  6
Continuous
 62
     7
370
    25
100
AcDbLine
 10
383.7889367069
 20
52.2290552885
 30
0.0
 11
383.7889367069
 21
108.7440552885
 31
0.0
  0
LINE
  5
E1
330
1F
100
AcDbEntity
  8
0
  6
Continuous
 62
     7
370
    25
100
AcDbLine
 10
382.7889367069
 20
108.7440552885
 30
0.0
 11
382.7889367069
 21
163.5270044809
 31
0.0
  0
LINE
  5
E2
330
1F
100
AcDbEntity
  8
0
  6
Continuous
 62
     7
370
    25
100
AcDbLine
 10
382.7889367069
 20
53.961106096
 30
0.0
 11
382.7889367069
 21
108.7440552885
 31
0.0
  0
LINE
  5
E3
330
1F
100
AcDbEntity
  8
0
  6
Continuous
 62
     7
370
    25
100
AcDbLine
 10
384.7889367069
 20
108.7440552885
 30
0.0
 11
384.7889367069
 21
163.5270044809
 31
0.0
  0
LINE
  5
E4
330
1F
100
AcDbEntity
  8
0
  6
Continuous
 62
     7
370
    25
100
AcDbLine
 10
384.7889367069
 20
53.961106096
 30
0.0
 11
384.7889367069
 21
108.7440552885
 31
0.0
  0
LINE
  5
E5
330
1F
100
AcDbEntity
  8
0
  6
Continuous
 62
     7
370
    25
100
AcDbLine
 10
385.7889367069
 20
108.7440552885
 30
0.0
 11
385.7889367069
 21
165.2590552885
 31
0.0
  0
LINE
  5
E6
330
1F
100
AcDbEntity
  8
0
  6
Continuous
 62
     7
370
    25
100
AcDbLine
 10
385.7889367069
 20
52.2290552885
 30
0.0
 11
385.7889367069
 21
108.7440552885
 31
0.0
  0
LINE
  5
E7
330
1F
100
AcDbEntity
  8
0
  6
Continuous
 62
     7
370
    25
100
AcDbLine
 10
386.7889367069
 20
108.7440552885
 30
0.0
 11
386.7889367069
 21
163.5270044809
 31
0.0
  0
LINE
  5
E8
330
1F
100
AcDbEntity
  8
0
  6
Continuous
 62
     7
370
    25
100
AcDbLine
 10
386.7889367069
 20
53.961106096
 30
0.0
 11
386.7889367069
 21
108.7440552885
 31
0.0
  0
LINE
  5
E9
330
1F
100
AcDbEntity
  8
0
  6
Continuous
 62
     7
370
    25
100
AcDbLine
 10
387.7889367069
 20
108.7440552885
 30
0.0
 11
387.7889367069
 21
165.2590552885
 31
0.0
  0
LINE
  5
EA
330
1F
100
AcDbEntity
  8
0
  6
Continuous
 62
     7
370
    25
100
AcDbLine
 10
387.7889367069
 20
52.2290552885
 30
0.0
 11
387.7889367069
 21
108.7440552885
 31
0.0
  0
LINE
  5
EB
330
1F
100
AcDbEntity
  8
0
  6
Continuous
 62
     7
370
    25
100
AcDbLine
 10
559.7889367069
 20
108.7440552885
 30
0.0
 11
559.7889367069
 21
163.7440552885
 31
0.0
  0
LINE
  5
EC
330
1F
100
AcDbEntity
  8
0
  6
Continuous
 62
     7
370
    25
100
AcDbLine
 10
559.7889367069
 20
53.7440552885
 30
0.0
 11
559.7889367069
 21
108.7440552885
 31
0.0
  0
LINE
  5
ED
330
1F
100
AcDbEntity
  8
0
  6
Continuous
 62
     1
370
    25
100
AcDbLine
 10
477.2889367069
 20
108.7440552885
 30
0.0
 11
477.2889367069
 21
186.7440552885
 31
0.0
  0
LINE
  5
EE
330
1F
100
AcDbEntity
  8
0
  6
Continuous
 62
     1
370
    25
100
AcDbLine
 10
477.2889367069
 20
30.7440552885
 30
0.0
 11
477.2889367069
 21
108.7440552885
 31
0.0
  0
LINE
  5
EF
330
1F
100
AcDbEntity
  8
0
  6
Continuous
 62
     7
370
    25
100
AcDbLine
 10
-128.2776984745
 20
186.7440552885
 30
0.0
 11
-172.7776984745
 21
186.7440552885
 31
0.0
  0
LINE
  5
F0
330
1F
100
AcDbEntity
  8
0
  6
Continuous
 62
     7
370
    25
100
AcDbLine
 10
-172.7776984745
 20
30.7440552885
 30
0.0
 11
-128.2776984745
 21
30.7440552885
 31
0.0
  0
ARC
  5
F1
330
1F
100
AcDbEntity
  8
0
  6
Continuous
 62
     7
370
    25
100
AcDbCircle
 10
-172.7776984745
 20
186.2440552885
 30
0.0
 40
0.5
100
AcDbArc
 50
90.0
 51
180.0
  0
ARC
  5
F2
330
1F
100
AcDbEntity
  8
0
  6
Continuous
 62
     7
370
    25
100
AcDbCircle
 10
-172.7776984745
 20
31.2440552885
 30
0.0
 40
0.5000000000000142
100
AcDbArc
 50
180.0
 51
270.0
  0
LINE
  5
F3
330
1F
100
AcDbEntity
  8
0
  6
Continuous
 62
     7
370
    25
100
AcDbLine
 10
-77.2776984745
 20
52.2290552885
 30
0.0
 11
-76.2776984745
 21
53.961106096
 31
0.0
  0
LINE
  5
F4
330
1F
100
AcDbEntity
  8
0
  6
Continuous
 62
     7
370
    25
100
AcDbLine
 10
-76.2776984745
 20
163.5270044809
 30
0.0
 11
-77.2776984745
 21
165.2590552885
 31
0.0
  0
LINE
  5
F5
330
1F
100
AcDbEntity
  8
0
  6
Continuous
 62
     7
370
    25
100
AcDbLine
 10
-79.2776984745
 20
52.2290552885
 30
0.0
 11
-78.2776984745
 21
53.961106096
 31
0.0
  0
LINE
  5
F6
330
1F
100
AcDbEntity
  8
0
  6
Continuous
 62
     7
370
    25
100
AcDbLine
 10
-78.2776984745
 20
163.5270044809
 30
0.0
 11
-79.2776984745
 21
165.2590552885
 31
0.0
  0
LINE
  5
F7
330
1F
100
AcDbEntity
  8
0
  6
Continuous
 62
     7
370
    25
100
AcDbLine
 10
-77.2776984745
 20
165.2590552885
 30
0.0
 11
-78.2776984745
 21
163.5270044809
 31
0.0
  0
LINE
  5
F8
330
1F
100
AcDbEntity
  8
0
  6
Continuous
 62
     7
370
    25
100
AcDbLine
 10
-78.2776984745
 20
53.961106096
 30
0.0
 11
-77.2776984745
 21
52.2290552885
 31
0.0
  0
LINE
  5
F9
330
1F
100
AcDbEntity
  8
0
  6
Continuous
 62
     7
370
    25
100
AcDbLine
 10
-79.2776984745
 20
165.2590552885
 30
0.0
 11
-80.2776984745
 21
163.5270044809
 31
0.0
  0
LINE
  5
FA
330
1F
100
AcDbEntity
  8
0
  6
Continuous
 62
     7
370
    25
100
AcDbLine
 10
-80.2776984745
 20
53.961106096
 30
0.0
 11
-79.2776984745
 21
52.2290552885
 31
0.0
  0
LINE
  5
FB
330
1F
100
AcDbEntity
  8
0
  6
Continuous
 62
     7
370
    25
100
AcDbLine
 10
-81.2776984745
 20
52.2290552885
 30
0.0
 11
-80.2776984745
 21
53.961106096
 31
0.0
  0
LINE
  5
FC
330
1F
100
AcDbEntity
  8
0
  6
Continuous
 62
     7
370
    25
100
AcDbLine
 10
-80.2776984745
 20
163.5270044809
 30
0.0
 11
-81.2776984745
 21
165.2590552885
 31
0.0
  0
LINE
  5
FD
330
1F
100
AcDbEntity
  8
0
  6
Continuous
 62
     7
370
    25
100
AcDbLine
 10
-81.2776984745
 20
165.2590552885
 30
0.0
 11
-82.2776984745
 21
163.5270044809
 31
0.0
  0
LINE
  5
FE
330
1F
100
AcDbEntity
  8
0
  6
Continuous
 62
     7
370
    25
100
AcDbLine
 10
-82.2776984745
 20
53.961106096
 30
0.0
 11
-81.2776984745
 21
52.2290552885
 31
0.0
  0
LINE
  5
FF
330
1F
100
AcDbEntity
  8
0
  6
Continuous
 62
     7
370
    25
100
AcDbLine
 10
-83.2776984745
 20
52.2290552885
 30
0.0
 11
-82.2776984745
 21
53.961106096
 31
0.0
  0
LINE
  5
100
330
1F
100
AcDbEntity
  8
0
  6
Continuous
 62
     7
370
    25
100
AcDbLine
 10
-82.2776984745
 20
163.5270044809
 30
0.0
 11
-83.2776984745
 21
165.2590552885
 31
0.0
  0
LINE
  5
101
330
1F
100
AcDbEntity
  8
0
  6
Continuous
 62
     7
370
    25
100
AcDbLine
 10
-83.2776984745
 20
165.2590552885
 30
0.0
 11
-108.2776984745
 21
165.2590552885
 31
0.0
  0
LINE
  5
102
330
1F
100
AcDbEntity
  8
0
  6
Continuous
 62
     7
370
    25
100
AcDbLine
 10
-108.2776984745
 20
52.2290552885
 30
0.0
 11
-83.2776984745
 21
52.2290552885
 31
0.0
  0
LINE
  5
103
330
1F
100
AcDbEntity
  8
0
  6
Continuous
 62
     7
370
    25
100
AcDbLine
 10
-173.2776984745
 20
163.7440552885
 30
0.0
 11
-255.2776984745
 21
163.7440552885
 31
0.0
  0
LINE
  5
104
330
1F
100
AcDbEntity
  8
0
  6
Continuous
 62
     7
370
    25
100
AcDbLine
 10
-255.2776984745
 20
53.7440552885
 30
0.0
 11
-173.2776984745
 21
53.7440552885
 31
0.0
  0
LINE
  5
105
330
1F
100
AcDbEntity
  8
0
  6
Continuous
 62
     7
370
    25
100
AcDbLine
 10
-128.2776984745
 20
186.7440552885
 30
0.0
 11
-128.2776984745
 21
30.7440552885
 31
0.0
  0
LINE
  5
106
330
1F
100
AcDbEntity
  8
0
  6
Continuous
 62
     7
370
    25
100
AcDbLine
 10
-173.2776984745
 20
186.2440552885
 30
0.0
 11
-173.2776984745
 21
31.2440552885
 31
0.0
  0
LINE
  5
107
330
1F
100
AcDbEntity
  8
0
  6
Continuous
 62
     7
370
    25
100
AcDbLine
 10
-128.2776984745
 20
141.9416957669
 30
0.0
 11
-108.2776984745
 21
141.9416957669
 31
0.0
  0
LINE
  5
108
330
1F
100
AcDbEntity
  8
0
  6
Continuous
 62
     7
370
    25
100
AcDbLine
 10
-128.2776984745
 20
175.1393362453
 30
0.0
 11
-108.2776984745
 21
175.1393362453
 31
0.0
  0
LINE
  5
109
330
1F
100
AcDbEntity
  8
0
  6
Continuous
 62
     7
370
    25
100
AcDbLine
 10
-108.2776984745
 20
141.9416957669
 30
0.0
 11
-108.2776984745
 21
175.1393362453
 31
0.0
  0
LINE
  5
10A
330
1F
100
AcDbEntity
  8
0
  6
Continuous
 62
     7
370
    25
100
AcDbLine
 10
-128.2776984745
 20
75.5464148101
 30
0.0
 11
-108.2776984745
 21
75.5464148101
 31
0.0
  0
LINE
  5
10B
330
1F
100
AcDbEntity
  8
0
  6
Continuous
 62
     7
370
    25
100
AcDbLine
 10
-108.2776984745
 20
75.5464148101
 30
0.0
 11
-108.2776984745
 21
141.9416957669
 31
0.0
  0
LINE
  5
10C
330
1F
100
AcDbEntity
  8
0
  6
Continuous
 62
     7
370
    25
100
AcDbLine
 10
-128.2776984745
 20
42.3487743317
 30
0.0
 11
-108.2776984745
 21
42.3487743317
 31
0.0
  0
LINE
  5
10D
330
1F
100
AcDbEntity
  8
0
  6
Continuous
 62
     7
370
    25
100
AcDbLine
 10
-108.2776984745
 20
42.3487743317
 30
0.0
 11
-108.2776984745
 21
75.5464148101
 31
0.0
  0
LINE
  5
10E
330
1F
100
AcDbEntity
  8
0
  6
Continuous
 62
     7
370
    25
100
AcDbLine
 10
-77.2776984745
 20
165.2590552885
 30
0.0
 11
-77.2776984745
 21
52.2290552885
 31
0.0
  0
LINE
  5
10F
330
1F
100
AcDbEntity
  8
0
  6
Continuous
 62
     7
370
    25
100
AcDbLine
 10
-76.2776984745
 20
163.5270044809
 30
0.0
 11
-76.2776984745
 21
53.961106096
 31
0.0
  0
LINE
  5
110
330
1F
100
AcDbEntity
  8
0
  6
Continuous
 62
     7
370
    25
100
AcDbLine
 10
-79.2776984745
 20
165.2590552885
 30
0.0
 11
-79.2776984745
 21
52.2290552885
 31
0.0
  0
LINE
  5
111
330
1F
100
AcDbEntity
  8
0
  6
Continuous
 62
     7
370
    25
100
AcDbLine
 10
-78.2776984745
 20
163.5270044809
 30
0.0
 11
-78.2776984745
 21
53.961106096
 31
0.0
  0
LINE
  5
112
330
1F
100
AcDbEntity
  8
0
  6
Continuous
 62
     7
370
    25
100
AcDbLine
 10
-80.2776984745
 20
163.5270044809
 30
0.0
 11
-80.2776984745
 21
53.961106096
 31
0.0
  0
LINE
  5
113
330
1F
100
AcDbEntity
  8
0
  6
Continuous
 62
     7
370
    25
100
AcDbLine
 10
-81.2776984745
 20
165.2590552885
 30
0.0
 11
-81.2776984745
 21
52.2290552885
 31
0.0
  0
LINE
  5
114
330
1F
100
AcDbEntity
  8
0
  6
Continuous
 62
     7
370
    25
100
AcDbLine
 10
-82.2776984745
 20
163.5270044809
 30
0.0
 11
-82.2776984745
 21
53.961106096
 31
0.0
  0
LINE
  5
115
330
1F
100
AcDbEntity
  8
0
  6
Continuous
 62
     7
370
    25
100
AcDbLine
 10
-83.2776984745
 20
165.2590552885
 30
0.0
 11
-83.2776984745
 21
52.2290552885
 31
0.0
  0
LINE
  5
116
330
1F
100
AcDbEntity
  8
0
  6
Continuous
 62
     7
370
    25
100
AcDbLine
 10
-255.2776984745
 20
163.7440552885
 30
0.0
 11
-255.2776984745
 21
53.7440552885
 31
0.0
  0
LINE
  5
117
330
1F
100
AcDbEntity
  8
0
  6
Continuous
 62
     1
370
    25
100
AcDbLine
 10
-172.7776984745
 20
186.7440552885
 30
0.0
 11
-172.7776984745
 21
30.7440552885
 31
0.0
  0
LINE
  5
118
330
1F
100
AcDbEntity
  8
0
  6
Continuous
 62
     7
370
    25
100
AcDbLine
 10
436.4542717072
 20
-86.6769889877
 30
0.0
 11
378.4715156499
 21
-53.2042564029
 31
0.0
  0
LINE
  5
119
330
1F
100
AcDbEntity
  8
0
  6
Continuous
 62
     7
370
    25
100
AcDbLine
 10
323.4759853549
 20
-148.4696312648
 30
0.0
 11
381.4587414122
 21
-181.9423638495
 31
0.0
  0
SPLINE
  5
11A
330
1F
100
AcDbEntity
  8
0
  6
Continuous
 62
     7
370
    25
100
AcDbSpline
210
0.0
220
0.0
230
1.0
 70
     8
 71
     3
 72
    18
 73
    14
 74
     0
 42
0.00000001
 43
0.00000001
 40
0.0
 40
0.0
 40
0.0
 40
0.0
 40
0.0335254429559449
 40
0.130330219658072
 40
0.2272114027202513
 40
0.3241603109292099
 40
0.4211661893277164
 40
0.51821766973917
 40
0.6153038362711443
 40
0.7124148902891831
 40
0.8095424793655926
 40
0.9066797810106916
 40
1.0
 40
1.0
 40
1.0
 40
1.0
 10
434.9953291331349
 20
-63.30358404945954
 30
0.0
 10
434.728918172252
 20
-63.28925257318826
 30
0.0
 10
433.6932450837019
 20
-63.23353893346356
 30
0.0
 10
431.8307442777851
 20
-63.30121850622727
 30
0.0
 10
429.4137577436422
 20
-63.5071289962833
 30
0.0
 10
426.9475484969204
 20
-63.88388170476406
 30
0.0
 10
424.442671295316
 20
-64.41679902131756
 30
0.0
 10
421.9035591560337
 20
-65.1083413104395
 30
0.0
 10
419.3363877830852
 20
-65.9561964824302
 30
0.0
 10
416.7469223658766
 20
-66.9576341557939
 30
0.0
 10
414.1411041726827
 20
-68.11409726396556
 30
0.0
 10
411.5590472489497
 20
-69.39158511838225
 30
0.0
 10
409.8463631849229
 20
-70.35840212479589
 30
0.0
 10
409.0071836587898
 20
-70.83212232476794
 30
0.0
  0
SPLINE
  5
11B
330
1F
100
AcDbEntity
  8
0
  6
Continuous
 62
     7
370
    25
100
AcDbSpline
210
0.0
220
0.0
230
1.0
 70
     8
 71
     3
 72
    18
 73
    14
 74
     0
 42
0.00000001
 43
0.00000001
 40
0.0
 40
0.0
 40
0.0
 40
0.0
 40
0.0517153058482797
 40
0.1499501679835602
 40
0.2481965426531031
 40
0.3464421414098829
 40
0.444681743891901
 40
0.5429089362484208
 40
0.6411157008784021
 40
0.7392924081793755
 40
0.8374280196516661
 40
0.9355105998618769
 40
1.0
 40
1.0
 40
1.0
 40
1.0
 10
354.0092844083566
 20
-166.1495927796753
 30
0.0
 10
354.0127543126731
 20
-166.6786247219338
 30
0.0
 10
354.0228154101881
 20
-168.2125696016769
 30
0.0
 10
354.1346131249073
 20
-170.6955113825755
 30
0.0
 10
354.3853932398119
 20
-173.5665893773975
 30
0.0
 10
354.7617461113658
 20
-176.3496019148522
 30
0.0
 10
355.2608132869925
 20
-179.0392896477336
 30
0.0
 10
355.8820328794953
 20
-181.6293227711561
 30
0.0
 10
356.6243318297961
 20
-184.1133759344594
 30
0.0
 10
357.4846155785596
 20
-186.4874256796461
 30
0.0
 10
358.4665544882108
 20
-188.7394945110327
 30
0.0
 10
359.423814438259
 20
-190.6435940219808
 30
0.0
 10
360.1008367513343
 20
-191.7408022153017
 30
0.0
 10
360.3693994074378
 20
-192.1760451031738
 30
0.0
  0
LINE
  5
11C
330
1F
100
AcDbEntity
  8
0
  6
Continuous
 62
     7
370
    25
100
AcDbLine
 10
479.7731422859
 20
-85.1270476689
 30
0.0
 11
448.3068905231
 21
-66.9619671809
 31
0.0
  0
LINE
  5
11D
330
1F
100
AcDbEntity
  8
0
  6
Continuous
 62
     7
370
    25
100
AcDbLine
 10
370.3132293775
 20
-202.0655897122
 30
0.0
 11
401.7794811403
 21
-220.2306702003
 31
0.0
  0
LINE
  5
11E
330
1F
100
AcDbEntity
  8
0
  6
Continuous
 62
     7
370
    25
100
AcDbLine
 10
500.851320454
 20
-122.1032899932
 30
0.0
 11
495.9133143949
 21
-119.252639773
 31
0.0
  0
LINE
  5
11F
330
1F
100
AcDbEntity
  8
0
  6
Continuous
 62
     7
370
    25
100
AcDbLine
 10
439.4029072199
 20
-217.1421426879
 30
0.0
 11
444.340913279
 21
-219.9927929081
 31
0.0
  0
LWPOLYLINE
  5
120
330
1F
100
AcDbEntity
  8
0
  6
Continuous
 62
     7
370
    25
100
AcDbPolyline
 90
       96
 70
   128
 43
0.0
 10
319.153945349
 20
-119.2061263499
 10
319.2235153049
 20
-116.737509797
 10
319.4319209609
 20
-114.1993641148
 10
319.778251012
 20
-111.6027879686
 10
320.2609910451
 20
-108.9591355253
 10
320.8780301608
 20
-106.2799668043
 10
321.6266702041
 20
-103.5769971288
 10
322.5036375625
 20
-100.8620458973
 10
323.5050974809
 20
-98.146984901
 10
324.62667083
 20
-95.4436864106
 10
325.8634532548
 20
-92.7639712627
 10
327.2100366204
 20
-90.1195571698
 10
328.6605326605
 20
-87.5220074818
 10
330.2085987248
 20
-84.9826806227
 10
331.8474655145
 20
-82.5126804227
 10
333.569966682
 20
-80.1228075642
 10
335.3685701679
 20
-77.8235123532
 10
337.2354111369
 20
-75.6248490225
 10
339.1623263684
 20
-73.5364317676
 10
341.1408899523
 20
-71.5673927057
 10
343.1624501336
 20
-69.7263419435
 10
345.2181671439
 20
-68.0213299277
 10
347.2990518558
 20
-66.4598122421
 10
349.3960050899
 20
-65.048617006
 10
351.4998574033
 20
-63.7939150172
 10
353.601409185
 20
-62.7011927684
 10
355.6914708839
 20
-61.7752284557
 10
357.760903192
 20
-61.0200710857
 10
359.8006570082
 20
-60.4390227693
 10
361.8018130082
 20
-60.0346242829
 10
363.7556206459
 20
-59.8086439583
 10
365.6535364176
 20
-59.7620699499
 10
367.4872612207
 20
-59.895105914
 10
369.248776643
 20
-60.2071701182
 10
370.9303800259
 20
-60.6968979851
 10
372.5247181455
 20
-61.3621480594
 10
374.0248193671
 20
-62.2000113717
 10
375.4241241295
 20
-63.206824159
 10
376.7165136292
 20
-64.3781838852
 10
377.8963365757
 20
-65.7089684921
 10
378.9584339033
 20
-67.1933587973
 10
379.8981613309
 20
-68.8248639396
 10
380.7114096693
 20
-70.5963497623
 10
381.3946227905
 20
-72.5000700085
 10
381.9448131775
 20
-74.527700194
 10
382.3595749875
 20
-76.6703740078
 10
382.6370945729
 20
-78.9187220827
 10
382.7761584109
 20
-81.2629129644
 10
382.7761584109
 20
-83.6926961027
 10
382.6370945729
 20
-86.1974466742
 10
382.3595749875
 20
-88.766212042
 10
381.9448131775
 20
-91.3877596487
 10
381.3946227905
 20
-94.0506261335
 10
380.7114096693
 20
-96.743167459
 10
379.8981613309
 20
-99.453609827
 10
378.9584339033
 20
-102.1701011625
 10
377.8963365757
 20
-104.8807629403
 10
376.7165136292
 20
-107.5737421261
 10
375.4241241295
 20
-110.237263007
 10
374.0248193671
 20
-112.859678684
 10
372.5247181455
 20
-115.4295220005
 10
370.9303800259
 20
-117.9355556855
 10
369.248776643
 20
-120.3668214915
 10
367.4872612207
 20
-122.7126881116
 10
365.6535364176
 20
-124.962897668
 10
363.7556206459
 20
-127.1076105668
 10
361.8018130082
 20
-129.1374485243
 10
359.8006570082
 20
-131.0435355754
 10
357.760903192
 20
-132.8175368866
 10
355.6914708839
 20
-134.4516952014
 10
353.601409185
 20
-135.9388647613
 10
351.4998574033
 20
-137.2725425522
 10
349.3960050899
 20
-138.4468967406
 10
347.2990518558
 20
-139.4567921742
 10
345.2181671439
 20
-140.2978128375
 10
343.1624501336
 20
-140.9662811608
 10
341.1408899523
 20
-141.4592741025
 10
339.1623263684
 20
-141.7746359297
 10
337.2354111369
 20
-141.9109876455
 10
335.3685701679
 20
-141.8677330185
 10
333.569966682
 20
-141.6450611902
 10
331.8474655145
 20
-141.2439458478
 10
330.2085987248
 20
-140.6661409666
 10
328.6605326605
 20
-139.9141731404
 10
327.2100366204
 20
-138.9913305332
 10
325.8634532548
 20
-137.9016485008
 10
324.62667083
 20
-136.6498919456
 10
323.5050974809
 20
-135.2415344804
 10
322.5036375625
 20
-133.6827344942
 10
321.6266702041
 20
-131.9803082226
 10
320.8780301608
 20
-130.1416999426
 10
320.2609910451
 20
-128.1749494203
 10
319.778251012
 20
-126.0886567555
 10
319.4319209609
 20
-123.891944775
 10
319.2235153049
 20
-121.5944191415
 10
319.153945349
 20
-119.2061263499
  0
LWPOLYLINE
  5
121
330
1F
100
AcDbEntity
  8
0
  6
Continuous
 62
     7
370
    25
100
AcDbPolyline
 90
      106
 70
   128
 43
0.0
 10
312.0828775372
 20
-123.288166909
 10
312.152487153
 20
-120.5621928502
 10
312.3610668161
 20
-117.7656075194
 10
312.7078698655
 20
-114.9084219661
 10
313.1916548362
 20
-112.0008641732
 10
313.8106899035
 20
-109.0533424429
 10
314.5627590827
 20
-106.0764081381
 10
315.4451701613
 20
-103.0807179108
 10
316.4547643365
 20
-100.0769955547
 10
317.5879275233
 20
-97.0759936162
 10
318.8406032915
 20
-94.0884549034
 10
320.2083073871
 20
-91.1250740295
 10
321.6861437843
 20
-88.1964591289
 10
323.2688222124
 20
-85.3130938829
 10
324.9506770934
 20
-82.4852999907
 10
326.7256878232
 20
-79.7232002206
 10
328.5875003242
 20
-77.0366821728
 10
330.5294497908
 20
-74.4353628848
 10
332.544584548
 20
-71.9285544045
 10
334.6256909362
 20
-69.5252304555
 10
336.7653191348
 20
-67.2339943139
 10
338.9558098301
 20
-65.0630480105
 10
341.1893216339
 20
-63.0201629695
 10
343.4578591537
 20
-61.1126521892
 10
345.7533016138
 20
-59.3473440632
 10
348.0674319261
 20
-57.7305579363
 10
350.3919661046
 20
-56.2680814832
 10
352.7185829202
 20
-54.9651499902
 10
355.0389536886
 20
-53.8264276138
 10
357.3447720847
 20
-52.8559906846
 10
359.627783877
 20
-52.0573131149
 10
361.8798164759
 20
-51.4332539631
 10
364.0928081891
 20
-50.986047199
 10
366.2588370806
 20
-50.7172937068
 10
368.3701493293
 20
-50.6279555542
 10
370.4191869851
 20
-50.7183525487
 10
372.398615025
 20
-50.9881610924
 10
374.3013476105
 20
-51.4364153408
 10
376.1205734527
 20
-52.06151066
 10
377.8497801952
 20
-52.8612093711
 10
379.4827777267
 20
-53.8326487601
 10
381.0137203398
 20
-54.9723513261
 10
382.4371276574
 20
-56.2762372299
 10
383.7479042506
 20
-57.7396388982
 10
384.9413578794
 20
-59.3573177329
 10
386.0132162897
 20
-61.1234828637
 10
386.9596425064
 20
-63.0318118776
 10
387.7772485693
 20
-65.0754734522
 10
388.463107661
 20
-67.2471518094
 10
389.0147645838
 20
-69.5390729042
 10
389.4302445493
 20
-71.9430322541
 10
389.7080602469
 20
-74.4504243085
 10
389.8472171685
 20
-77.0522732545
 10
389.8472171685
 20
-79.7392651482
 10
389.7080602469
 20
-82.5017812561
 10
389.4302445493
 20
-85.3299324873
 10
389.0147645838
 20
-88.2135947945
 10
388.463107661
 20
-91.1424454151
 10
387.7772485693
 20
-94.105999824
 10
386.9596425064
 20
-97.0936492655
 10
386.0132162897
 20
-100.09469873
 10
384.9413578794
 20
-103.0984052394
 10
383.7479042506
 20
-106.0940163038
 10
382.4371276574
 20
-109.0708084133
 10
381.0137203398
 20
-112.0181254245
 10
379.4827777267
 20
-114.9254167075
 10
377.8497801952
 20
-117.7822749141
 10
376.1205734527
 20
-120.5784732333
 10
374.3013476105
 20
-123.3040020009
 10
372.398615025
 20
-125.9491045313
 10
370.4191869851
 20
-128.5043120439
 10
368.3701493293
 20
-130.9604775589
 10
366.2588370806
 20
-133.3088086414
 10
364.0928081891
 20
-135.5408988754
 10
361.8798164759
 20
-137.6487579573
 10
359.627783877
 20
-139.6248402986
 10
357.3447720847
 20
-141.4620720374
 10
355.0389536886
 20
-143.1538763609
 10
352.7185829202
 20
-144.6941970486
 10
350.3919661046
 20
-146.0775201524
 10
348.0674319261
 20
-147.2988937345
 10
345.7533016138
 20
-148.3539455945
 10
343.4578591537
 20
-149.2388989205
 10
341.1893216339
 20
-149.9505858093
 10
338.9558098301
 20
-150.4864586066
 10
336.7653191348
 20
-150.8445990269
 10
334.6256909362
 20
-151.0237250202
 10
332.544584548
 20
-151.0231953622
 10
330.5294497908
 20
-150.8430119489
 10
328.5875003242
 20
-150.48381979
 10
326.7256878232
 20
-149.9469047003
 10
324.9506770934
 20
-149.2341886965
 10
323.2688222124
 20
-148.3482231169
 10
321.6861437843
 20
-147.2921794884
 10
320.2083073871
 20
-146.0698381729
 10
318.8406032915
 20
-144.6855748353
 10
317.5879275233
 20
-143.144344779
 10
316.4547643365
 20
-141.4516652075
 10
315.4451701613
 20
-139.6135954745
 10
314.5627590827
 20
-137.6367153925
 10
313.8106899035
 20
-135.5281016792
 10
313.1916548362
 20
-133.2953026244
 10
312.7078698655
 20
-130.9463110693
 10
312.3610668161
 20
-128.4895357938
 10
312.152487153
 20
-125.933771416
 10
312.0828775372
 20
-123.288166909
  0
LWPOLYLINE
  5
122
330
1F
100
AcDbEntity
  8
0
  6
Continuous
 62
     7
370
    25
100
AcDbPolyline
 90
       54
 70
   128
 43
0.0
 10
436.4542717072
 20
-86.6769889877
 10
437.465533784
 20
-87.3053813448
 10
438.9964763971
 20
-88.4450839109
 10
440.4198837147
 20
-89.7489698146
 10
441.7306603079
 20
-91.212371483
 10
442.9241139367
 20
-92.8300503177
 10
443.995972347
 20
-94.5962154484
 10
444.9423985637
 20
-96.5045444623
 10
445.7600046266
 20
-98.5482060369
 10
446.4458637183
 20
-100.7198843941
 10
446.9975206411
 20
-103.011805489
 10
447.4130006066
 20
-105.4157648389
 10
447.6908163042
 20
-107.9231568932
 10
447.8299732258
 20
-110.5250058392
 10
447.8299732258
 20
-113.211997733
 10
447.6908163042
 20
-115.9745138408
 10
447.4130006066
 20
-118.802665072
 10
446.9975206411
 20
-121.6863273793
 10
446.4458637183
 20
-124.6151779999
 10
445.7600046266
 20
-127.5787324087
 10
444.9423985637
 20
-130.5663818502
 10
443.995972347
 20
-133.5674313147
 10
442.9241139367
 20
-136.5711378241
 10
441.7306603079
 20
-139.5667488886
 10
440.4198837147
 20
-142.543540998
 10
438.9964763971
 20
-145.4908580092
 10
437.465533784
 20
-148.3981492922
 10
435.8325362525
 20
-151.2550074988
 10
434.10332951
 20
-154.051205818
 10
432.2841036678
 20
-156.7767345857
 10
430.3813710823
 20
-159.421837116
 10
428.4019430424
 20
-161.9770446286
 10
426.3529053866
 20
-164.4332101437
 10
424.2415931379
 20
-166.7815412261
 10
422.0755642464
 20
-169.0136314601
 10
419.8625725332
 20
-171.121490542
 10
417.6105399343
 20
-173.0975728833
 10
415.327528142
 20
-174.9348046221
 10
413.0217097459
 20
-176.6266089456
 10
410.7013389775
 20
-178.1669296334
 10
408.3747221619
 20
-179.5502527371
 10
406.0501879834
 20
-180.7716263192
 10
403.7360576711
 20
-181.8266781792
 10
401.4406152109
 20
-182.7116315052
 10
399.1720776912
 20
-183.4233183941
 10
396.9385658874
 20
-183.9591911914
 10
394.7480751921
 20
-184.3173316116
 10
392.6084469935
 20
-184.496457605
 10
390.5273406053
 20
-184.495927947
 10
388.5122058481
 20
-184.3157445336
 10
386.5702563815
 20
-183.9565523747
 10
384.7084438805
 20
-183.4196372851
 10
382.9334331507
 20
-182.7069212813
 10
381.4587414122
 20
-181.9423638495
  0
ARC
  5
123
330
1F
100
AcDbEntity
  8
0
  6
Continuous
 62
     7
370
    25
100
AcDbCircle
 10
434.6081200701
 20
-90.6819889537
 30
0.0
 40
27.35853196652591
100
AcDbArc
 50
31.7806531099
 51
88.8659748108
  0
ARC
  5
124
330
1F
100
AcDbEntity
  8
0
  6
Continuous
 62
     7
370
    25
100
AcDbCircle
 10
384.0337852998
 20
-178.2953614031
 30
0.0
 40
27.41113235912283
100
AcDbArc
 50
210.7197009844
 51
269.0977986236
  0
LWPOLYLINE
  5
125
330
1F
100
AcDbEntity
  8
0
  6
Continuous
 62
     7
370
    25
100
AcDbPolyline
 90
       65
 70
   128
 43
0.0
 10
479.7731422859
 20
-85.1270476689
 10
481.2072957766
 20
-86.0182222845
 10
483.0269789059
 20
-87.3488072355
 10
484.7416202193
 20
-88.8418129886
 10
486.3469568486
 20
-90.4935276962
 10
487.8389976738
 20
-92.2998449353
 10
489.2140332464
 20
-94.2562739167
 10
490.4686450114
 20
-96.3579506496
 10
491.5997138061
 20
-98.5996500346
 10
492.6044276154
 20
-100.9757988537
 10
493.4802885624
 20
-103.4804896266
 10
494.2251191189
 20
-106.1074952974
 10
494.8370675186
 20
-108.8502847161
 10
495.3146123614
 20
-111.7020388761
 10
495.6565663956
 20
-114.6556678671
 10
495.8620794697
 20
-117.7038285021
 10
495.9306406457
 20
-120.8389425735
 10
495.8620794697
 20
-124.0532156938
 10
495.6565663956
 20
-127.3386566734
 10
495.3146123614
 20
-130.6870973886
 10
494.8370675186
 20
-134.090213088
 10
494.2251191189
 20
-137.5395430898
 10
493.4802885624
 20
-141.0265118163
 10
492.6044276154
 20
-144.5424501136
 10
491.5997138061
 20
-148.0786168053
 10
490.4686450114
 20
-151.6262204237
 10
489.2140332464
 20
-155.1764410673
 10
487.8389976738
 20
-158.7204523282
 10
486.3469568486
 20
-162.249443236
 10
484.7416202193
 20
-165.7546401633
 10
483.0269789059
 20
-169.2273286381
 10
481.2072957766
 20
-172.6588750099
 10
479.2870948507
 20
-176.0407479136
 10
477.2711500499
 20
-179.3645394804
 10
475.1644733309
 20
-182.6219862407
 10
472.9723022238
 20
-185.8049896686
 10
470.7000868115
 20
-188.9056363161
 10
468.3534761794
 20
-191.916217487
 10
465.9383043713
 20
-194.8292484023
 10
463.4605758849
 20
-197.637486808
 10
460.9264507436
 20
-200.333950981
 10
458.3422291817
 20
-202.9119370866
 10
455.7143359813
 20
-205.3650358451
 10
453.0493044989
 20
-207.6871484664
 10
450.3537604227
 20
-209.8725018127
 10
447.6344052999
 20
-211.9156627513
 10
444.8979998759
 20
-213.8115516621
 10
442.1513472858
 20
-215.5554550666
 10
439.4012761405
 20
-217.1430373461
 10
436.6546235503
 20
-218.570351521
 10
433.9182181263
 20
-219.8338490633
 10
431.1988630035
 20
-220.9303887191
 10
428.5033189273
 20
-221.8572443179
 10
425.8382874449
 20
-222.6121115508
 10
423.2103942445
 20
-223.1931136989
 10
420.6261726827
 20
-223.5988062992
 10
418.0920475413
 20
-223.8281807361
 10
415.6143190549
 20
-223.8806667486
 10
413.1991472468
 20
-223.7561338481
 10
410.8525366147
 20
-223.4548916431
 10
408.5803212024
 20
-222.9776890691
 10
406.3881500953
 20
-222.3257125271
 10
404.2814733763
 20
-221.5005829332
 10
402.2655285756
 20
-220.5043516898
 10
401.7794811403
 20
-220.2306702003
  0
LINE
  5
126
330
1F
100
AcDbEntity
  8
0
  6
Continuous
 62
     7
370
    25
100
AcDbLine
 10
448.4472822224
 20
-211.3216725672
 30
0.0
 11
454.9184473368
 21
-215.0573966707
 31
0.0
  0
LINE
  5
127
330
1F
100
AcDbEntity
  8
0
  6
Continuous
 62
     7
370
    25
100
AcDbLine
 10
487.4106149051
 20
-159.7640310081
 30
0.0
 11
495.5770872551
 21
-164.4784351469
 31
0.0
  0
LINE
  5
128
330
1F
100
AcDbEntity
  8
0
  6
Continuous
 62
     7
370
    25
100
AcDbLine
 10
454.9184473368
 20
-215.0573966707
 30
0.0
 11
495.5770872551
 21
-164.4784351469
 31
0.0
  0
LWPOLYLINE
  5
129
330
1F
100
AcDbEntity
  8
0
  6
Continuous
 62
     7
370
    25
100
AcDbPolyline
 90
       55
 70
   128
 43
0.0
 10
500.851320454
 20
-122.1032899932
 10
502.2675899648
 20
-123.0072775592
 10
503.7874535595
 20
-124.1940030925
 10
505.199794155
 20
-125.5422442025
 10
506.4997431206
 20
-127.0473532226
 10
507.682819263
 20
-128.7041417303
 10
508.7449442737
 20
-130.5068984324
 10
509.6824567876
 20
-132.449408853
 10
510.4921250049
 20
-134.5249767563
 10
511.1711578316
 20
-136.7264472298
 10
511.7172145008
 20
-139.0462313486
 10
512.1284126421
 20
-141.4763323365
 10
512.4033347703
 20
-144.0083731318
 10
512.5410331719
 20
-146.6336252653
 10
512.5410331719
 20
-149.3430389492
 10
512.4033347703
 20
-152.1272742731
 10
512.1284126421
 20
-154.9767334011
 10
511.7172145008
 20
-157.8815936574
 10
511.1711578316
 20
-160.8318413868
 10
510.4921250049
 20
-163.8173064742
 10
509.6824567876
 20
-166.8276974029
 10
508.7449442737
 20
-169.852636732
 10
507.682819263
 20
-172.8816968687
 10
506.4997431206
 20
-175.9044360153
 10
505.199794155
 20
-178.9104341638
 10
503.7874535595
 20
-181.8893290159
 10
502.2675899648
 20
-184.8308517038
 10
500.6454426556
 20
-187.7248621895
 10
498.9266035096
 20
-190.5613842193
 10
497.1169977215
 20
-193.3306397142
 10
495.2228633773
 20
-196.0230824767
 10
493.2507299505
 20
-198.629431099
 10
491.2073957936
 20
-201.1407009574
 10
489.0999047026
 20
-203.5482351844
 10
486.935521636
 20
-205.8437345108
 10
484.7217076707
 20
-208.0192858749
 10
482.4660942818
 20
-210.0673897005
 10
480.1764570362
 20
-211.9809857493
 10
477.8606887876
 20
-213.7534774594
 10
475.526772469
 20
-215.3787546847
 10
473.1827535734
 20
-216.8512147578
 10
470.8367124195
 20
-218.1657818039
 10
468.4967362973
 20
-219.317924238
 10
466.1708915891
 20
-220.3036703865
 10
463.8671959635
 20
-221.1196221782
 10
461.5935907365
 20
-221.7629668582
 10
459.3579134964
 20
-222.2314866841
 10
457.1678710858
 20
-222.5235665711
 10
455.0310130346
 20
-222.6381996592
 10
452.954705535
 20
-222.5749907846
 10
450.9461060493
 20
-222.3341578411
 10
449.0121386358
 20
-221.91653103
 10
447.1594700811
 20
-221.3235499972
 10
445.3944869173
 20
-220.5572588714
 10
444.340913279
 20
-219.9927929081
  0
LINE
  5
12A
330
1F
100
AcDbEntity
  8
0
  6
Continuous
 62
     7
370
    25
100
AcDbLine
 10
495.0400767958
 20
-109.9539689896
 30
0.0
 11
495.5770872551
 21
-110.263978529
 31
0.0
  0
LINE
  5
12B
330
1F
100
AcDbEntity
  8
0
  6
Continuous
 62
     7
370
    25
100
AcDbLine
 10
495.5770872551
 20
-164.4784351469
 30
0.0
 11
495.5770872551
 21
-128.2429716343
 31
0.0
  0
LINE
  5
12C
330
1F
100
AcDbEntity
  8
0
  6
Continuous
 62
     7
370
    25
100
AcDbLine
 10
495.5770872551
 20
-113.8431175686
 30
0.0
 11
495.5770872551
 21
-110.263978529
 31
0.0
  0
LWPOLYLINE
  5
12D
330
1F
100
AcDbEntity
  8
0
  6
Continuous
 62
     7
370
    25
100
AcDbPolyline
 90
       57
 70
   128
 43
0.0
 10
501.5495807981
 20
-122.5268181878
 10
502.059656218
 20
-122.8025666029
 10
503.6818035272
 20
-123.823685671
 10
505.2016671219
 20
-125.0104112044
 10
506.6140077174
 20
-126.3586523143
 10
507.913956683
 20
-127.8637613344
 10
509.0970328254
 20
-129.5205498421
 10
510.159157836
 20
-131.3233065442
 10
511.09667035
 20
-133.2658169648
 10
511.9063385673
 20
-135.3413848681
 10
512.585371394
 20
-137.5428553416
 10
513.1314280632
 20
-139.8626394605
 10
513.5426262045
 20
-142.2927404483
 10
513.8175483327
 20
-144.8247812436
 10
513.9552467343
 20
-147.4500333771
 10
513.9552467343
 20
-150.159447061
 10
513.8175483327
 20
-152.9436823849
 10
513.5426262045
 20
-155.793141513
 10
513.1314280632
 20
-158.6980017692
 10
512.585371394
 20
-161.6482494986
 10
511.9063385673
 20
-164.633714586
 10
511.09667035
 20
-167.6441055148
 10
510.159157836
 20
-170.6690448438
 10
509.0970328254
 20
-173.6981049805
 10
507.913956683
 20
-176.7208441271
 10
506.6140077174
 20
-179.7268422756
 10
505.2016671219
 20
-182.7057371277
 10
503.6818035272
 20
-185.6472598156
 10
502.059656218
 20
-188.5412703013
 10
500.340817072
 20
-191.3777923311
 10
498.5312112839
 20
-194.147047826
 10
496.6370769397
 20
-196.8394905885
 10
494.6649435129
 20
-199.4458392108
 10
492.6216093559
 20
-201.9571090692
 10
490.514118265
 20
-204.3646432962
 10
488.3497351984
 20
-206.6601426226
 10
486.135921233
 20
-208.8356939867
 10
483.8803078442
 20
-210.8837978123
 10
481.5906705985
 20
-212.7973938611
 10
479.2749023499
 20
-214.5698855712
 10
476.9409860313
 20
-216.1951627965
 10
474.5969671357
 20
-217.6676228696
 10
472.2509259819
 20
-218.9821899157
 10
469.9109498596
 20
-220.1343323498
 10
467.5851051514
 20
-221.1200784983
 10
465.2814095258
 20
-221.93603029
 10
463.0078042989
 20
-222.57937497
 10
460.7721270588
 20
-223.0478947959
 10
458.5820846482
 20
-223.3399746829
 10
456.4452265969
 20
-223.4546077711
 10
454.3689190974
 20
-223.3913988964
 10
452.3603196116
 20
-223.1505659529
 10
450.4263521982
 20
-222.7329391418
 10
448.5736836435
 20
-222.1399581091
 10
446.8087004797
 20
-221.3736669832
 10
445.1374869694
 20
-220.4367073285
 10
445.0568664972
 20
-220.3856728252
  0
LINE
  5
12E
330
1F
100
AcDbEntity
  8
0
  6
Continuous
 62
     7
370
    25
100
AcDbLine
 10
444.4304568488
 20
-214.1196122774
 30
0.0
 11
454.9184473368
 21
-215.0573966707
 31
0.0
  0
LWPOLYLINE
  5
12F
330
1F
100
AcDbEntity
  8
0
  6
Continuous
 62
     7
370
    25
100
AcDbPolyline
 90
       57
 70
   128
 43
0.0
 10
502.9637943605
 20
-123.3432262997
 10
503.4738697803
 20
-123.6189747148
 10
505.0960170896
 20
-124.6400937828
 10
506.6158806843
 20
-125.8268193162
 10
508.0282212798
 20
-127.1750604262
 10
509.3281702454
 20
-128.6801694463
 10
510.5112463878
 20
-130.336957954
 10
511.5733713984
 20
-132.139714656
 10
512.5108839123
 20
-134.0822250766
 10
513.3205521297
 20
-136.1577929799
 10
513.9995849564
 20
-138.3592634534
 10
514.5456416256
 20
-140.6790475723
 10
514.9568397669
 20
-143.1091485601
 10
515.2317618951
 20
-145.6411893554
 10
515.3694602966
 20
-148.2664414889
 10
515.3694602966
 20
-150.9758551728
 10
515.2317618951
 20
-153.7600904967
 10
514.9568397669
 20
-156.6095496248
 10
514.5456416256
 20
-159.514409881
 10
513.9995849564
 20
-162.4646576104
 10
513.3205521297
 20
-165.4501226978
 10
512.5108839123
 20
-168.4605136266
 10
511.5733713984
 20
-171.4854529556
 10
510.5112463878
 20
-174.5145130923
 10
509.3281702454
 20
-177.537252239
 10
508.0282212798
 20
-180.5432503875
 10
506.6158806843
 20
-183.5221452395
 10
505.0960170896
 20
-186.4636679274
 10
503.4738697803
 20
-189.3576784131
 10
501.7550306344
 20
-192.1942004429
 10
499.9454248463
 20
-194.9634559378
 10
498.0512905021
 20
-197.6558987004
 10
496.0791570753
 20
-200.2622473227
 10
494.0358229183
 20
-202.773517181
 10
491.9283318274
 20
-205.181051408
 10
489.7639487608
 20
-207.4765507344
 10
487.5501347954
 20
-209.6521020985
 10
485.2945214066
 20
-211.7002059241
 10
483.0048841609
 20
-213.613801973
 10
480.6891159123
 20
-215.3862936831
 10
478.3551995937
 20
-217.0115709083
 10
476.0111806981
 20
-218.4840309815
 10
473.6651395442
 20
-219.7985980276
 10
471.325163422
 20
-220.9507404617
 10
468.9993187138
 20
-221.9364866101
 10
466.6956230882
 20
-222.7524384018
 10
464.4220178613
 20
-223.3957830818
 10
462.1863406212
 20
-223.8643029078
 10
459.9962982106
 20
-224.1563827947
 10
457.8594401593
 20
-224.2710158829
 10
455.7831326597
 20
-224.2078070082
 10
453.774533174
 20
-223.9669740648
 10
451.8405657606
 20
-223.5493472536
 10
449.9878972058
 20
-222.9563662209
 10
448.222914042
 20
-222.1900750951
 10
446.5517005318
 20
-221.2531154404
 10
446.4710800596
 20
-221.202080937
  0
LWPOLYLINE
  5
130
330
1F
100
AcDbEntity
  8
0
  6
Continuous
 62
     7
370
    25
100
AcDbPolyline
 90
       57
 70
   128
 43
0.0
 10
504.3780079229
 20
-124.1596344115
 10
504.8880833427
 20
-124.4353828266
 10
506.510230652
 20
-125.4565018946
 10
508.0300942467
 20
-126.643227428
 10
509.4424348421
 20
-127.991468538
 10
510.7423838078
 20
-129.4965775581
 10
511.9254599502
 20
-131.1533660658
 10
512.9875849608
 20
-132.9561227678
 10
513.9250974747
 20
-134.8986331884
 10
514.734765692
 20
-136.9742010917
 10
515.4137985187
 20
-139.1756715652
 10
515.959855188
 20
-141.4954556841
 10
516.3710533293
 20
-143.9255566719
 10
516.6459754575
 20
-146.4575974672
 10
516.783673859
 20
-149.0828496008
 10
516.783673859
 20
-151.7922632846
 10
516.6459754575
 20
-154.5764986086
 10
516.3710533293
 20
-157.4259577366
 10
515.959855188
 20
-160.3308179929
 10
515.4137985187
 20
-163.2810657222
 10
514.734765692
 20
-166.2665308096
 10
513.9250974747
 20
-169.2769217384
 10
512.9875849608
 20
-172.3018610674
 10
511.9254599502
 20
-175.3309212041
 10
510.7423838078
 20
-178.3536603508
 10
509.4424348421
 20
-181.3596584993
 10
508.0300942467
 20
-184.3385533513
 10
506.510230652
 20
-187.2800760392
 10
504.8880833427
 20
-190.1740865249
 10
503.1692441967
 20
-193.0106085547
 10
501.3596384086
 20
-195.7798640496
 10
499.4655040644
 20
-198.4723068122
 10
497.4933706376
 20
-201.0786554345
 10
495.4500364807
 20
-203.5899252928
 10
493.3425453897
 20
-205.9974595198
 10
491.1781623232
 20
-208.2929588463
 10
488.9643483578
 20
-210.4685102104
 10
486.7087349689
 20
-212.5166140359
 10
484.4190977233
 20
-214.4302100848
 10
482.1033294747
 20
-216.2027017949
 10
479.7694131561
 20
-217.8279790202
 10
477.4253942605
 20
-219.3004390933
 10
475.0793531066
 20
-220.6150061394
 10
472.7393769844
 20
-221.7671485735
 10
470.4135322762
 20
-222.752894722
 10
468.1098366506
 20
-223.5688465136
 10
465.8362314236
 20
-224.2121911936
 10
463.6005541836
 20
-224.6807110196
 10
461.4105117729
 20
-224.9727909066
 10
459.2736537217
 20
-225.0874239947
 10
457.1973462221
 20
-225.02421512
 10
455.1887467364
 20
-224.7833821766
 10
453.254779323
 20
-224.3657553654
 10
451.4021107682
 20
-223.7727743327
 10
449.6371276044
 20
-223.0064832069
 10
447.9659140942
 20
-222.0695235522
 10
447.885293622
 20
-222.0184890488
  0
LWPOLYLINE
  5
131
330
1F
100
AcDbEntity
  8
0
  6
Continuous
 62
     1
370
    25
100
AcDbPolyline
 90
       95
 70
   128
 43
0.0
 10
409.1516411702
 20
-70.915515871
 10
411.0219578004
 20
-69.8803674068
 10
413.770820263
 20
-68.4931919639
 10
416.5075213514
 20
-67.2722746729
 10
419.2251479211
 20
-66.2206996767
 10
421.9168350115
 20
-65.341123345
 10
424.5757831875
 20
-64.6357675641
 10
427.1952757151
 20
-64.1064141238
 10
429.7686955289
 20
-63.7544002168
 10
432.2895419472
 20
-63.5806150609
 10
434.751447093
 20
-63.5854976524
 10
437.1481919804
 20
-63.7690356574
 10
439.4737222237
 20
-64.1307654432
 10
441.7221633317
 20
-64.6697732487
 10
443.887835547
 20
-65.3846974935
 10
445.9652681937
 20
-66.2737322169
 10
447.9492134966
 20
-67.3346316401
 10
449.8346598376
 20
-68.5647158391
 10
451.6168444158
 20
-69.9608775143
 10
453.2912652781
 20
-71.5195898403
 10
454.8536926922
 20
-73.2369153744
 10
456.3001798307
 20
-75.1085160033
 10
457.6270727418
 20
-77.1296639013
 10
458.8310195786
 20
-79.2952534735
 10
459.9089790671
 20
-81.5998142526
 10
460.8582281879
 20
-84.0375247181
 10
461.6763690555
 20
-86.6022270019
 10
462.3613349749
 20
-89.2874424433
 10
462.9113956629
 20
-92.0863879551
 10
463.3251616183
 20
-94.9919931581
 10
463.6015876326
 20
-97.9969182413
 10
463.7399754295
 20
-101.0935725031
 10
463.7399754295
 20
-104.2741335262
 10
463.6015876326
 20
-107.5305669374
 10
463.3251616183
 20
-110.8546467032
 10
462.9113956629
 20
-114.2379759097
 10
462.3613349749
 20
-117.6720079736
 10
461.6763690555
 20
-121.148068232
 10
460.8582281879
 20
-124.657375855
 10
459.9089790671
 20
-128.1910660268
 10
458.8310195786
 20
-131.7402123396
 10
457.6270727418
 20
-135.2958493416
 10
456.3001798307
 20
-138.8489951852
 10
454.8536926922
 20
-142.3906743157
 10
453.2912652781
 20
-145.9119401441
 10
451.6168444158
 20
-149.4038976474
 10
449.8346598376
 20
-152.8577258379
 10
447.9492134966
 20
-156.2647000459
 10
445.9652681937
 20
-159.6162139587
 10
443.887835547
 20
-162.9038013613
 10
441.7221633317
 20
-166.1191575228
 10
439.4737222237
 20
-169.2541601743
 10
437.1481919804
 20
-172.3008900271
 10
434.751447093
 20
-175.2516507771
 10
432.2895419472
 20
-178.0989885466
 10
429.7686955289
 20
-180.8357107133
 10
427.1952757151
 20
-183.4549040795
 10
424.5757831875
 20
-185.9499523353
 10
421.9168350115
 20
-188.3145527725
 10
419.2251479211
 20
-190.542732205
 10
416.5075213514
 20
-192.6288620583
 10
413.770820263
 20
-194.5676725872
 10
411.0219578004
 20
-196.3542661881
 10
408.2678778286
 20
-197.9841297706
 10
405.5155373928
 20
-199.4531461577
 10
402.7718891438
 20
-200.7576044865
 10
400.0438637751
 20
-201.8942095822
 10
397.3383525156
 20
-202.8600902816
 10
394.6621897215
 20
-203.6528066863
 10
392.0221356123
 20
-204.2703563257
 10
389.4248591939
 20
-204.7111792159
 10
386.8769214118
 20
-204.9741618001
 10
384.384758578
 20
-205.0586397614
 10
381.9546661121
 20
-204.9643997011
 10
379.5927826387
 20
-204.6916796778
 10
377.3050744803
 20
-204.2411686059
 10
375.0973205863
 20
-203.6140045156
 10
372.9750979347
 20
-202.8117716778
 10
370.9437674439
 20
-201.8364966021
 10
369.0084604313
 20
-200.6906429182
 10
367.1740656501
 20
-199.3771051518
 10
365.445216941
 20
-197.8992014133
 10
363.8262815256
 20
-196.260665016
 10
362.3213489754
 20
-194.4656350448
 10
360.9342208807
 20
-192.5186459013
 10
359.6684012474
 20
-190.424615849
 10
358.5270876457
 20
-188.1888345897
 10
357.5131631328
 20
-185.8169499008
 10
356.6291889701
 20
-183.3149533688
 10
355.877398153
 20
-180.6891652542
 10
355.2596897704
 20
-177.9462185256
 10
354.7776242072
 20
-175.0930421045
 10
354.4324192029
 20
-172.1368433622
 10
354.2249467753
 20
-169.0850899132
 10
354.1561108752
 20
-166.1808907329
  0
LWPOLYLINE
  5
132
330
1F
100
AcDbEntity
  8
0
  6
Continuous
 62
     1
370
    25
100
AcDbPolyline
 90
       53
 70
   128
 43
0.0
 10
457.864803209
 20
-76.2731041689
 10
459.0023932486
 20
-78.1928701616
 10
460.1334620433
 20
-80.4345695465
 10
461.1381758526
 20
-82.8107183656
 10
462.0140367996
 20
-85.3154091385
 10
462.7588673561
 20
-87.9424148094
 10
463.3708157557
 20
-90.6852042281
 10
463.8483605986
 20
-93.536958388
 10
464.1903146328
 20
-96.490587379
 10
464.3958277069
 20
-99.538748014
 10
464.4643888829
 20
-102.6738620855
 10
464.3958277069
 20
-105.8881352057
 10
464.1903146328
 20
-109.1735761854
 10
463.8483605986
 20
-112.5220169005
 10
463.3708157557
 20
-115.9251325999
 10
462.7588673561
 20
-119.3744626018
 10
462.0140367996
 20
-122.8614313282
 10
461.1381758526
 20
-126.3773696256
 10
460.1334620433
 20
-129.9135363172
 10
459.0023932486
 20
-133.4611399356
 10
457.7477814836
 20
-137.0113605792
 10
456.372745911
 20
-140.5553718401
 10
454.8807050858
 20
-144.0843627479
 10
453.2753684565
 20
-147.5895596752
 10
451.5607271431
 20
-151.0622481501
 10
449.7410440138
 20
-154.4937945219
 10
447.8208430879
 20
-157.8756674256
 10
445.8048982871
 20
-161.1994589924
 10
443.6982215681
 20
-164.4569057527
 10
441.506050461
 20
-167.6399091806
 10
439.2338350487
 20
-170.740555828
 10
436.8872244166
 20
-173.7511369989
 10
434.4720526085
 20
-176.6641679142
 10
431.9943241221
 20
-179.4724063199
 10
429.4601989808
 20
-182.168870493
 10
426.8759774189
 20
-184.7468565986
 10
424.2480842185
 20
-187.199955357
 10
421.5830527361
 20
-189.5220679783
 10
418.8875086599
 20
-191.7074213247
 10
416.1681535371
 20
-193.7505822632
 10
413.4317481131
 20
-195.646471174
 10
410.685095523
 20
-197.3903745785
 10
407.9350243777
 20
-198.977956858
 10
405.1883717875
 20
-200.4052710329
 10
402.4519663635
 20
-201.6687685752
 10
399.7326112407
 20
-202.765308231
 10
397.0370671645
 20
-203.6921638299
 10
394.3720356821
 20
-204.4470310628
 10
391.7441424817
 20
-205.0280332108
 10
389.1599209199
 20
-205.4337258112
 10
386.6257957785
 20
-205.6631002481
 10
384.1480672921
 20
-205.7155862605
 10
383.6021769058
 20
-205.7030955561
  0
LINE
  5
133
330
1F
100
AcDbEntity
  8
0
  6
Continuous
 62
     7
370
    25
100
AcDbLine
 10
61.8323425481
 20
-129.9831179202
 30
0.0
 11
61.8323425481
 21
-174.4831179202
 31
0.0
  0
LINE
  5
134
330
1F
100
AcDbEntity
  8
0
  6
Continuous
 62
     7
370
    25
100
AcDbLine
 10
217.8323425481
 20
-174.4831179202
 30
0.0
 11
217.8323425481
 21
-129.9831179202
 31
0.0
  0
ARC
  5
135
330
1F
100
AcDbEntity
  8
0
  6
Continuous
 62
     7
370
    25
100
AcDbCircle
 10
62.3323425481
 20
-174.4831179202
 30
0.0
 40
0.5
100
AcDbArc
 50
180.0
 51
270.0
  0
ARC
  5
136
330
1F
100
AcDbEntity
  8
0
  6
Continuous
 62
     7
370
    25
100
AcDbCircle
 10
217.3323425481
 20
-174.4831179202
 30
0.0
 40
0.5000000000000284
100
AcDbArc
 50
270.0
 51
0.0
  0
LINE
  5
137
330
1F
100
AcDbEntity
  8
0
  6
Continuous
 62
     7
370
    25
100
AcDbLine
 10
196.3473425481
 20
-78.9831179202
 30
0.0
 11
194.6152917405
 21
-77.9831179202
 31
0.0
  0
LINE
  5
138
330
1F
100
AcDbEntity
  8
0
  6
Continuous
 62
     7
370
    25
100
AcDbLine
 10
85.0493933556
 20
-77.9831179202
 30
0.0
 11
83.3173425481
 21
-78.9831179202
 31
0.0
  0
LINE
  5
139
330
1F
100
AcDbEntity
  8
0
  6
Continuous
 62
     7
370
    25
100
AcDbLine
 10
196.3473425481
 20
-80.9831179202
 30
0.0
 11
194.6152917405
 21
-79.9831179202
 31
0.0
  0
LINE
  5
13A
330
1F
100
AcDbEntity
  8
0
  6
Continuous
 62
     7
370
    25
100
AcDbLine
 10
85.0493933556
 20
-79.9831179202
 30
0.0
 11
83.3173425481
 21
-80.9831179202
 31
0.0
  0
LINE
  5
13B
330
1F
100
AcDbEntity
  8
0
  6
Continuous
 62
     7
370
    25
100
AcDbLine
 10
83.3173425481
 20
-78.9831179202
 30
0.0
 11
85.0493933556
 21
-79.9831179202
 31
0.0
  0
LINE
  5
13C
330
1F
100
AcDbEntity
  8
0
  6
Continuous
 62
     7
370
    25
100
AcDbLine
 10
194.6152917405
 20
-79.9831179202
 30
0.0
 11
196.3473425481
 21
-78.9831179202
 31
0.0
  0
LINE
  5
13D
330
1F
100
AcDbEntity
  8
0
  6
Continuous
 62
     7
370
    25
100
AcDbLine
 10
83.3173425481
 20
-80.9831179202
 30
0.0
 11
85.0493933556
 21
-81.9831179202
 31
0.0
  0
LINE
  5
13E
330
1F
100
AcDbEntity
  8
0
  6
Continuous
 62
     7
370
    25
100
AcDbLine
 10
194.6152917405
 20
-81.9831179202
 30
0.0
 11
196.3473425481
 21
-80.9831179202
 31
0.0
  0
LINE
  5
13F
330
1F
100
AcDbEntity
  8
0
  6
Continuous
 62
     7
370
    25
100
AcDbLine
 10
196.3473425481
 20
-82.9831179202
 30
0.0
 11
194.6152917405
 21
-81.9831179202
 31
0.0
  0
LINE
  5
140
330
1F
100
AcDbEntity
  8
0
  6
Continuous
 62
     7
370
    25
100
AcDbLine
 10
85.0493933556
 20
-81.9831179202
 30
0.0
 11
83.3173425481
 21
-82.9831179202
 31
0.0
  0
LINE
  5
141
330
1F
100
AcDbEntity
  8
0
  6
Continuous
 62
     7
370
    25
100
AcDbLine
 10
83.3173425481
 20
-82.9831179202
 30
0.0
 11
85.0493933556
 21
-83.9831179202
 31
0.0
  0
LINE
  5
142
330
1F
100
AcDbEntity
  8
0
  6
Continuous
 62
     7
370
    25
100
AcDbLine
 10
194.6152917405
 20
-83.9831179202
 30
0.0
 11
196.3473425481
 21
-82.9831179202
 31
0.0
  0
LINE
  5
143
330
1F
100
AcDbEntity
  8
0
  6
Continuous
 62
     7
370
    25
100
AcDbLine
 10
196.3473425481
 20
-84.9831179202
 30
0.0
 11
194.6152917405
 21
-83.9831179202
 31
0.0
  0
LINE
  5
144
330
1F
100
AcDbEntity
  8
0
  6
Continuous
 62
     7
370
    25
100
AcDbLine
 10
85.0493933556
 20
-83.9831179202
 30
0.0
 11
83.3173425481
 21
-84.9831179202
 31
0.0
  0
LINE
  5
145
330
1F
100
AcDbEntity
  8
0
  6
Continuous
 62
     7
370
    25
100
AcDbLine
 10
83.3173425481
 20
-84.9831179202
 30
0.0
 11
83.3173425481
 21
-109.9831179202
 31
0.0
  0
LINE
  5
146
330
1F
100
AcDbEntity
  8
0
  6
Continuous
 62
     7
370
    25
100
AcDbLine
 10
196.3473425481
 20
-109.9831179202
 30
0.0
 11
196.3473425481
 21
-84.9831179202
 31
0.0
  0
LINE
  5
147
330
1F
100
AcDbEntity
  8
0
  6
Continuous
 62
     7
370
    25
100
AcDbLine
 10
84.8323425481
 20
-174.9831179202
 30
0.0
 11
84.8323425481
 21
-256.9831179202
 31
0.0
  0
LINE
  5
148
330
1F
100
AcDbEntity
  8
0
  6
Continuous
 62
     7
370
    25
100
AcDbLine
 10
194.8323425481
 20
-256.9831179202
 30
0.0
 11
194.8323425481
 21
-174.9831179202
 31
0.0
  0
LINE
  5
149
330
1F
100
AcDbEntity
  8
0
  6
Continuous
 62
     7
370
    25
100
AcDbLine
 10
61.8323425481
 20
-129.9831179202
 30
0.0
 11
217.8323425481
 21
-129.9831179202
 31
0.0
  0
LINE
  5
14A
330
1F
100
AcDbEntity
  8
0
  6
Continuous
 62
     7
370
    25
100
AcDbLine
 10
62.3323425481
 20
-174.9831179202
 30
0.0
 11
217.3323425475
 21
-174.9831179202
 31
0.0
  0
LINE
  5
14B
330
1F
100
AcDbEntity
  8
0
  6
Continuous
 62
     7
370
    25
100
AcDbLine
 10
197.3323425481
 20
-129.9831179202
 30
0.0
 11
197.3323425481
 21
-109.9831179202
 31
0.0
  0
LINE
  5
14C
330
1F
100
AcDbEntity
  8
0
  6
Continuous
 62
     7
370
    25
100
AcDbLine
 10
139.8323425481
 20
-129.9831179202
 30
0.0
 11
139.8323425481
 21
-109.9831179202
 31
0.0
  0
LINE
  5
14D
330
1F
100
AcDbEntity
  8
0
  6
Continuous
 62
     7
370
    25
100
AcDbLine
 10
197.3323425481
 20
-109.9831179202
 30
0.0
 11
139.8323425481
 21
-109.9831179202
 31
0.0
  0
LINE
  5
14E
330
1F
100
AcDbEntity
  8
0
  6
Continuous
 62
     7
370
    25
100
AcDbLine
 10
82.3323425481
 20
-129.9831179202
 30
0.0
 11
82.3323425481
 21
-109.9831179202
 31
0.0
  0
LINE
  5
14F
330
1F
100
AcDbEntity
  8
0
  6
Continuous
 62
     7
370
    25
100
AcDbLine
 10
139.8323425481
 20
-109.9831179202
 30
0.0
 11
82.3323425481
 21
-109.9831179202
 31
0.0
  0
LINE
  5
150
330
1F
100
AcDbEntity
  8
0
  6
Continuous
 62
     7
370
    25
100
AcDbLine
 10
83.3173425481
 20
-78.9831179202
 30
0.0
 11
196.3473425481
 21
-78.9831179202
 31
0.0
  0
LINE
  5
151
330
1F
100
AcDbEntity
  8
0
  6
Continuous
 62
     7
370
    25
100
AcDbLine
 10
85.0493933556
 20
-77.9831179202
 30
0.0
 11
194.6152917405
 21
-77.9831179202
 31
0.0
  0
LINE
  5
152
330
1F
100
AcDbEntity
  8
0
  6
Continuous
 62
     7
370
    25
100
AcDbLine
 10
83.3173425481
 20
-80.9831179202
 30
0.0
 11
196.3473425481
 21
-80.9831179202
 31
0.0
  0
LINE
  5
153
330
1F
100
AcDbEntity
  8
0
  6
Continuous
 62
     7
370
    25
100
AcDbLine
 10
85.0493933556
 20
-79.9831179202
 30
0.0
 11
194.6152917405
 21
-79.9831179202
 31
0.0
  0
LINE
  5
154
330
1F
100
AcDbEntity
  8
0
  6
Continuous
 62
     7
370
    25
100
AcDbLine
 10
85.0493933556
 20
-81.9831179202
 30
0.0
 11
194.6152917405
 21
-81.9831179202
 31
0.0
  0
LINE
  5
155
330
1F
100
AcDbEntity
  8
0
  6
Continuous
 62
     7
370
    25
100
AcDbLine
 10
83.3173425481
 20
-82.9831179202
 30
0.0
 11
196.3473425481
 21
-82.9831179202
 31
0.0
  0
LINE
  5
156
330
1F
100
AcDbEntity
  8
0
  6
Continuous
 62
     7
370
    25
100
AcDbLine
 10
85.0493933556
 20
-83.9831179202
 30
0.0
 11
194.6152917405
 21
-83.9831179202
 31
0.0
  0
LINE
  5
157
330
1F
100
AcDbEntity
  8
0
  6
Continuous
 62
     7
370
    25
100
AcDbLine
 10
83.3173425481
 20
-84.9831179202
 30
0.0
 11
196.3473425481
 21
-84.9831179202
 31
0.0
  0
LINE
  5
158
330
1F
100
AcDbEntity
  8
0
  6
Continuous
 62
     7
370
    25
100
AcDbLine
 10
84.8323425481
 20
-256.9831179202
 30
0.0
 11
194.8323425481
 21
-256.9831179202
 31
0.0
  0
LINE
  5
159
330
1F
100
AcDbEntity
  8
0
  6
Continuous
 62
     1
370
    25
100
AcDbLine
 10
61.8323425481
 20
-174.4831179202
 30
0.0
 11
217.8323425481
 21
-174.4831179202
 31
0.0
  0
ENDSEC
  0
SECTION
  2
OBJECTS
  0
DICTIONARY
  5
C
330
0
100
AcDbDictionary
281
     1
  3
ACAD_GROUP
350
D
  3
ACAD_LAYOUT
350
1A
  3
ACAD_MLINESTYLE
350
17
  3
ACAD_PLOTSETTINGS
350
19
  3
ACAD_PLOTSTYLENAME
350
E
  3
ACAD_SCALELIST
350
47
  3
DWGPROPS
350
15A
  0
DICTIONARY
  5
D
102
{ACAD_REACTORS
330
C
102
}
330
C
100
AcDbDictionary
281
     1
  0
DICTIONARY
  5
1A
102
{ACAD_REACTORS
330
C
102
}
330
C
100
AcDbDictionary
281
     1
  3
Layout1
350
1E
  3
Layout2
350
26
  3
Model
350
22
  0
DICTIONARY
  5
17
102
{ACAD_REACTORS
330
C
102
}
330
C
100
AcDbDictionary
281
     1
  3
Standard
350
18
  0
DICTIONARY
  5
19
102
{ACAD_REACTORS
330
C
102
}
330
C
100
AcDbDictionary
281
     1
  0
ACDBDICTIONARYWDFLT
  5
E
102
{ACAD_REACTORS
330
C
102
}
330
C
100
AcDbDictionary
281
     1
  3
Normal
350
F
100
AcDbDictionaryWithDefault
340
F
  0
DICTIONARY
  5
47
102
{ACAD_REACTORS
330
C
102
}
330
C
100
AcDbDictionary
281
     1
  3
A0
350
48
  3
A1
350
49
  3
A2
350
4A
  3
A3
350
4B
  3
A4
350
4C
  3
A5
350
4D
  3
A6
350
4E
  3
A7
350
4F
  3
A8
350
50
  3
A9
350
51
  3
B0
350
52
  3
B1
350
53
  3
B2
350
54
  3
B3
350
55
  3
B4
350
56
  3
B5
350
57
  3
B6
350
58
  3
B7
350
59
  3
B8
350
5A
  3
B9
350
5B
  3
C0
350
5C
  3
C1
350
5D
  3
C2
350
5E
  3
C3
350
5F
  3
C4
350
60
  3
C5
350
61
  3
C6
350
62
  3
C7
350
63
  3
C8
350
64
  3
C9
350
65
  3
D0
350
66
  3
D1
350
67
  3
D2
350
68
  0
XRECORD
  5
15A
102
{ACAD_REACTORS
330
C
102
}
330
C
100
AcDbXrecord
280
     1
  1
DWGPROPS COOKIE
  2

  3

  4

  6

  7

  8
b.kav
  9

300
=
301
=
302
=
303
=
304
=
305
=
306
=
307
=
308
=
309
=
 40
0.0
 41
2459948.454436493
 42
2459948.454436678
  1

 90
        0
  0
LAYOUT
  5
1E
102
{ACAD_REACTORS
330
1A
102
}
330
1A
100
AcDbPlotSettings
  1

  2
none_device
  4

  6

 40
0.0
 41
0.0
 42
0.0
 43
0.0
 44
0.0
 45
0.0
 46
0.0
 47
0.0
 48
0.0
 49
0.0
140
0.0
141
0.0
142
1.0
143
1.0
 70
   688
 72
     1
 73
     0
 74
     5
  7

 75
    16
147
1.0
148
0.0
149
0.0
100
AcDbLayout
  1
Layout1
 70
     1
 71
     1
 10
0.0
 20
0.0
 11
420.0
 21
297.0
 12
0.0
 22
0.0
 32
0.0
 14
1.0000000000E+20
 24
1.0000000000E+20
 34
1.0000000000E+20
 15
-1.0000000000E+20
 25
-1.0000000000E+20
 35
-1.0000000000E+20
146
0.0
 13
0.0
 23
0.0
 33
0.0
 16
1.0
 26
0.0
 36
0.0
 17
0.0
 27
1.0
 37
0.0
 76
     0
330
1B
  0
LAYOUT
  5
26
102
{ACAD_REACTORS
330
1A
102
}
330
1A
100
AcDbPlotSettings
  1

  2
none_device
  4

  6

 40
0.0
 41
0.0
 42
0.0
 43
0.0
 44
0.0
 45
0.0
 46
0.0
 47
0.0
 48
0.0
 49
0.0
140
0.0
141
0.0
142
1.0
143
1.0
 70
   688
 72
     1
 73
     0
 74
     5
  7

 75
    16
147
1.0
148
0.0
149
0.0
100
AcDbLayout
  1
Layout2
 70
     1
 71
     2
 10
0.0
 20
0.0
 11
0.0
 21
0.0
 12
0.0
 22
0.0
 32
0.0
 14
0.0
 24
0.0
 34
0.0
 15
0.0
 25
0.0
 35
0.0
146
0.0
 13
0.0
 23
0.0
 33
0.0
 16
1.0
 26
0.0
 36
0.0
 17
0.0
 27
1.0
 37
0.0
 76
     0
330
23
  0
LAYOUT
  5
22
102
{ACAD_REACTORS
330
1A
102
}
330
1A
100
AcDbPlotSettings
  1

  2
none_device
  4
Letter_(8.50_x_11.00_Inches)
  6

 40
6.35
 41
6.35
 42
6.35000508
 43
6.35000508
 44
215.9
 45
279.4
 46
0.0
 47
0.0
 48
0.0
 49
0.0
140
0.0
141
0.0
142
1.0
143
1.0
 70
  1712
 72
     1
 73
     0
 74
     0
  7

 75
     0
147
1.0
148
0.0
149
0.0
100
AcDbLayout
  1
Model
 70
     1
 71
     0
 10
0.0
 20
0.0
 11
279.4
 21
215.9
 12
0.0
 22
0.0
 32
0.0
 14
0.0
 24
0.0
 34
0.0
 15
279.4
 25
215.9
 35
0.0
146
0.0
 13
0.0
 23
0.0
 33
0.0
 16
1.0
 26
0.0
 36
0.0
 17
0.0
 27
1.0
 37
0.0
 76
     0
330
1F
331
29
  0
MLINESTYLE
  5
18
102
{ACAD_REACTORS
330
17
102
}
330
17
100
AcDbMlineStyle
  2
Standard
 70
     0
  3

 62
   256
 51
90.0
 52
90.0
 71
     2
 49
0.5
 62
   256
  6
BYLAYER
 49
-0.5
 62
   256
  6
BYLAYER
  0
ACDBPLACEHOLDER
  5
F
102
{ACAD_REACTORS
330
E
102
}
330
E
  0
SCALE
  5
48
102
{ACAD_REACTORS
330
47
102
}
330
47
100
AcDbScale
 70
     0
300
1:1
140
1.0
141
1.0
290
     1
  0
SCALE
  5
49
102
{ACAD_REACTORS
330
47
102
}
330
47
100
AcDbScale
 70
     0
300
1:2
140
1.0
141
2.0
290
     0
  0
SCALE
  5
4A
102
{ACAD_REACTORS
330
47
102
}
330
47
100
AcDbScale
 70
     0
300
1:4
140
1.0
141
4.0
290
     0
  0
SCALE
  5
4B
102
{ACAD_REACTORS
330
47
102
}
330
47
100
AcDbScale
 70
     0
300
1:5
140
1.0
141
5.0
290
     0
  0
SCALE
  5
4C
102
{ACAD_REACTORS
330
47
102
}
330
47
100
AcDbScale
 70
     0
300
1:8
140
1.0
141
8.0
290
     0
  0
SCALE
  5
4D
102
{ACAD_REACTORS
330
47
102
}
330
47
100
AcDbScale
 70
     0
300
1:10
140
1.0
141
10.0
290
     0
  0
SCALE
  5
4E
102
{ACAD_REACTORS
330
47
102
}
330
47
100
AcDbScale
 70
     0
300
1:16
140
1.0
141
16.0
290
     0
  0
SCALE
  5
4F
102
{ACAD_REACTORS
330
47
102
}
330
47
100
AcDbScale
 70
     0
300
1:20
140
1.0
141
20.0
290
     0
  0
SCALE
  5
50
102
{ACAD_REACTORS
330
47
102
}
330
47
100
AcDbScale
 70
     0
300
1:30
140
1.0
141
30.0
290
     0
  0
SCALE
  5
51
102
{ACAD_REACTORS
330
47
102
}
330
47
100
AcDbScale
 70
     0
300
1:40
140
1.0
141
40.0
290
     0
  0
SCALE
  5
52
102
{ACAD_REACTORS
330
47
102
}
330
47
100
AcDbScale
 70
     0
300
1:50
140
1.0
141
50.0
290
     0
  0
SCALE
  5
53
102
{ACAD_REACTORS
330
47
102
}
330
47
100
AcDbScale
 70
     0
300
1:100
140
1.0
141
100.0
290
     0
  0
SCALE
  5
54
102
{ACAD_REACTORS
330
47
102
}
330
47
100
AcDbScale
 70
     0
300
2:1
140
2.0
141
1.0
290
     0
  0
SCALE
  5
55
102
{ACAD_REACTORS
330
47
102
}
330
47
100
AcDbScale
 70
     0
300
4:1
140
4.0
141
1.0
290
     0
  0
SCALE
  5
56
102
{ACAD_REACTORS
330
47
102
}
330
47
100
AcDbScale
 70
     0
300
8:1
140
8.0
141
1.0
290
     0
  0
SCALE
  5
57
102
{ACAD_REACTORS
330
47
102
}
330
47
100
AcDbScale
 70
     0
300
10:1
140
10.0
141
1.0
290
     0
  0
SCALE
  5
58
102
{ACAD_REACTORS
330
47
102
}
330
47
100
AcDbScale
 70
     0
300
100:1
140
100.0
141
1.0
290
     0
  0
SCALE
  5
59
102
{ACAD_REACTORS
330
47
102
}
330
47
100
AcDbScale
 70
     0
300
1/128" = 1'-0"
140
0.0078125
141
12.0
290
     0
  0
SCALE
  5
5A
102
{ACAD_REACTORS
330
47
102
}
330
47
100
AcDbScale
 70
     0
300
1/64" = 1'-0"
140
0.015625
141
12.0
290
     0
  0
SCALE
  5
5B
102
{ACAD_REACTORS
330
47
102
}
330
47
100
AcDbScale
 70
     0
300
1/32" = 1'-0"
140
0.03125
141
12.0
290
     0
  0
SCALE
  5
5C
102
{ACAD_REACTORS
330
47
102
}
330
47
100
AcDbScale
 70
     0
300
1/16" = 1'-0"
140
0.0625
141
12.0
290
     0
  0
SCALE
  5
5D
102
{ACAD_REACTORS
330
47
102
}
330
47
100
AcDbScale
 70
     0
300
3/32" = 1'-0"
140
0.09375
141
12.0
290
     0
  0
SCALE
  5
5E
102
{ACAD_REACTORS
330
47
102
}
330
47
100
AcDbScale
 70
     0
300
1/8" = 1'-0"
140
0.125
141
12.0
290
     0
  0
SCALE
  5
5F
102
{ACAD_REACTORS
330
47
102
}
330
47
100
AcDbScale
 70
     0
300
3/16" = 1'-0"
140
0.1875
141
12.0
290
     0
  0
SCALE
  5
60
102
{ACAD_REACTORS
330
47
102
}
330
47
100
AcDbScale
 70
     0
300
1/4" = 1'-0"
140
0.25
141
12.0
290
     0
  0
SCALE
  5
61
102
{ACAD_REACTORS
330
47
102
}
330
47
100
AcDbScale
 70
     0
300
3/8" = 1'-0"
140
0.375
141
12.0
290
     0
  0
SCALE
  5
62
102
{ACAD_REACTORS
330
47
102
}
330
47
100
AcDbScale
 70
     0
300
1/2" = 1'-0"
140
0.5
141
12.0
290
     0
  0
SCALE
  5
63
102
{ACAD_REACTORS
330
47
102
}
330
47
100
AcDbScale
 70
     0
300
3/4" = 1'-0"
140
0.75
141
12.0
290
     0
  0
SCALE
  5
64
102
{ACAD_REACTORS
330
47
102
}
330
47
100
AcDbScale
 70
     0
300
1" = 1'-0"
140
1.0
141
12.0
290
     0
  0
SCALE
  5
65
102
{ACAD_REACTORS
330
47
102
}
330
47
100
AcDbScale
 70
     0
300
1-1/2" = 1'-0"
140
1.5
141
12.0
290
     0
  0
SCALE
  5
66
102
{ACAD_REACTORS
330
47
102
}
330
47
100
AcDbScale
 70
     0
300
3" = 1'-0"
140
3.0
141
12.0
290
     0
  0
SCALE
  5
67
102
{ACAD_REACTORS
330
47
102
}
330
47
100
AcDbScale
 70
     0
300
6" = 1'-0"
140
6.0
141
12.0
290
     0
  0
SCALE
  5
68
102
{ACAD_REACTORS
330
47
102
}
330
47
100
AcDbScale
 70
     0
300
1'-0" = 1'-0"
140
12.0
141
12.0
290
     0
  0
ENDSEC
  0
EOF
